PrimaNota.ru - самый крупный в мире бесплатный архив песенных текстов, аккордов, табулатур и нот


Duncan Browne - Gabilan - таба, видео

Регистрация Запомнить меня
Войти через:  Facebook Google Twitter Vk Yandex Mail.ru

Duncan Browne - Gabilan - таба, видео

Печатать
Просмотров: 79
"Gabilan"
by Duncan Brown

Standard Tuning
Capo @ 7th Fret

Note: I wasn't quite sure how to space this out since it has a different time signature.
This is as much sense as I could make of it.

 Cmaj7       Em                       Cmaj7       Em
|------0-----------0-----------0-----|------0-----------0-----------0-----|
|----1---1-------1---1-------1---1---|----1---1-------1---1-------1---1---|
|--2-------2---2-------2---2-------2-|--2-------2---2-------2---2-------2-|
|3-----------2-----------------------|3-----------2-----------------------|
|------------------------3-----------|------------------------3-----------|
|------------------------------------|------------------------------------|
 The         Sun         strikes      the         sand        and

 Cmaj7       Em
|------0-----------0-----------0-----|
|----1---1-------1---1-------1---1---|
|--2-------2---2-------2---2-------2-|
|3-----------2-----------------------|
|------------------------3-----------|
|------------------------------------|
 shim-       -mers       the

 Am7         Em          Am7         Gmaj7
|------1-----------0-----------1-----------0-----|
|----1---1-------1---1-------1---1-------1---1---|
|--2-------2---2-------2---2-------2---0-------0-|
|0-----------------------0-----------------------|
|------------3-----------------------2-----------|
|------------------------------------------------|
 world       to          haze        and

 Em7         Gmaj7        Em7
|------0-----------0-----------0-----------0-----|
|----1---1-------1---1-------1---1-------1---1---|
|--2-------2---0-------0---2-------2---2-------2-|
|------------------------------------------------|
|3-----------2-----------3-----------0-----------|
|------------------------------------------------|
 liz-        -ards       crawl       be-

 Am7         Em          Am7         Em
|------1-----------0-----------1-----------0-----|
|----1---1-------1---1-------1---1-------1---1---|
|--2-------2---2-------2---2-------2---2-------2-|
|0-----------------------0-----------2-----------|
|------------3-----------------------------------|
|------------------------------------------------|
 -neath      the         rocks       to

 Em
|------0-----------0-----------0-----------0-----------1-----| this bar
|----1---1-------1---1-------1---1-------1---1-------1---1---| varies
|--2-------2---2-------2---2-------2---2-------2---2-------0-| in length.
|------------2-----------------------2-----------------------|
|0-----------------------0-----------------------0-----------|
|------------------------------------------------------------|
 hide.

(Also, not 100% sure of the lyrics. Comment if you have a better idea.)

The Earth dare not move lest it's whitened bones be shown. The air is still and even 
heat perspires.

But, high in the breeze there's another world that's cool. The silent sea belongs to Gabilan.

He drifts without a thought knowing not love nor hate. His liquid shadow cruciform below.

He has no compassion for those who crumble to dust, nor can he help them find what they 
learned at birth.

A hawk-- I would be up there with you but alas I have no beauty, I can only wish.
Добавлено: 22.06.2013
Другие материалы по этой песне:
  • Аккорды и текст

Страница создана 22.06.2013
http://primanota.ru/duncan-browne/gabilan-chords.htm
Привет, Гость.
Предлагаем пройти революционный курс по гитаре.
Подарок от PrimaNota.Ru, забирай!