PrimaNota.ru - самый крупный в мире бесплатный архив песенных текстов, аккордов, табулатур и нот


Dunaj - Cassiniho Deleni - аккорды и текст, таба, видео

Регистрация Запомнить меня
Войти через:  Facebook Google Twitter Vk Yandex Mail.ru

Dunaj - Cassiniho Deleni - аккорды и текст, таба, видео

Печатать
Просмотров: 146
Уроки эстрадного вокала в Санкт-Петербурге
Cassiniho Deleni
Dunaj



Date: Mon, 01 Dec 1997 12:58:48 +0100
From: [iso-8859-1] Јukasz[iso-8859-1]  Mrzygіуd
     
Subject: TAB: Cassiniho deleni by Dunaj



Piece of music from album of Czech alternative group - DUNAJ


Cassiniho deleni - from Rosol

Za ptakem ptak...

e---------------------------|-------------------------------
b--------1-----------3------|--------1-----------3----------
g------0---0-------0---0----|------0---0-------0---0--------
d----2-------2---4-------4--|----2-------2---4-------4---0--
a--0-----------5------------|--0-----------5----------------
E---------------------------|--------------------------3----

e----------------------
b---------0------------
g-------0---2-------2--
d-0---0-------0---0----
a---0-----------1------
E----------------------


e---------------------------------------------------
b--------1-----------3------------------------------
g------0---0-------0---0-------0-----0-------0------
d----2-------2---4-------4---0-----0---2---0-----0--
a--0-----------5-----------2-----3-------0-----2----
E---------------------------------------------------

Transcription made by Lucas Mrzyglod :  or
 www:


Добавлено: 08.10.2013
Другие материалы по этой песне:
  • Аккорды и текст

Страница создана 01.04.2012
http://primanota.ru/dunaj/cassiniho-deleni-chords.htm
Привет, Гость.
Предлагаем пройти революционный курс по гитаре.
Подарок от PrimaNota.Ru, забирай!