PrimaNota.ru - самый крупный в мире бесплатный архив песенных текстов, аккордов, табулатур и нот


Dumdum Boys - Idyll - таба, видео

Регистрация Запомнить меня
Войти через:  Facebook Google Twitter Vk Yandex Mail.ru

Dumdum Boys - Idyll - таба, видео

Печатать
Просмотров: 125
         Title : Idyll
        Artist : DumDum Boys



Legend
------

 h  = hammer-on
 p  = pull-off
 b  = bend
 r  = bend release
 /  = slide up/down
<5> = natural harmonic
[5] = artifical harmonic
 ~  = vibrato
 tr = trill



   Intro                                     Vers

E|-------1-0-------------------1---------||------1-------------------------------||
B|---3-------3-----------------3---------||*-----1------------------------------*||
G|-2---2-------2-0-------------2------0--||------2-------------------0-----------||
D|-----------------5b6-5b6-3-0----2-2-0--||--0-2-3---------------2-2-0--------2--||
A|--------------------------------3-3-2--||*-2-3-----------------3-3-2--------3-*||
E|---------------------------------------||--------------------------------------||

						 Jeg elsker deg......

Pre-chorus

E|------0----------0----------0----0---|
B|------1----------1----------1----1---|
G|------0----------2----------0----2---|
D|--0-2-2--0-2-2-2-2--0-2-0-2-2--0-2---|
A|--2-3----2-0-0-0-0--2-3---3----2-0---|
E|-------------------------------------|

	Du har aldri sett meg uten deg

 Fill e/pre-chorus Refreng

E|-3-1-0-----|---1---------0------------1----------0-*|
B|-------3-2-|---1---------1------------1----------1-*|
G|-----------|---2---------0------------2----------0-*|
D|-----------|-3-3-2-0-2-0-2--2-0---0-3-3--2-0-2-2-2-*|
A|-----------|-----3-2-3---3--3-2-3--------3-2-3---3-*|
E|-----------|---------------------------------------*|



Dette er vel hoveddelene av sangen. Hør på den og få det til å stemme.
Dette er nok ikke helt riktig, men kan gi deg en ide til hvordan den går.
Добавлено: 19.05.2012
Другие материалы по этой песне:
  • Аккорды и текст

Страница создана 19.05.2012
http://primanota.ru/dumdum-boys/idyll-chords.htm
Привет, Гость.
Предлагаем пройти революционный курс по гитаре.
Подарок от PrimaNota.Ru, забирай!