PrimaNota.ru - самый крупный в мире бесплатный архив песенных текстов, аккордов, табулатур и нот


Dum Dums - It Goes Without Saying - таба, видео

Регистрация Запомнить меня
Войти через:  Facebook Google Twitter Vk Yandex Mail.ru

Dum Dums - It Goes Without Saying - таба, видео

Печатать
Просмотров: 101
Уроки эстрадного вокала в Санкт-Петербурге
Dum Dums - It Goes Without Saying

Intro                                                        Drum fill
E|-----------------|-----------------|    -----------------|-----------|
B|-----------------|-----------------|    -----------------|-----------|
G|---7-7-----------|---------------7-| x3 ---7-7-----------|-----------|
D|---7-7-7-7-----5-|-5-------5-5-7-7-|    ---7-7-7-7-----5-|-5---------|
A|---5-5-7-7-----5-|-5---5-5-5-5-7-5-|    ---5-5-7-7-----5-|-5---------|
E|-------5-5-----3-|-3---3-3-3-3-5---|    -------5-5-----3-|-3---------|

Verse
D5                 DM7(bass plays A) G                 (bass plays E)
-----------------|-----------------|-----------------|-----------------|
-----------------|-----------------|-----------------|-----------------|
-----7-----7-----|-----6-----6-----|-----4-----4-----|-----4-----4-----|
-----7-----7-----|-----7-----7-----|-----5-----5-----|-----5-----5-----|  x2
-5-5---5-5---5-5-|-5-5---5-5---5-5-|-5-5---5-5---5-5-|-5-5---5-5---5-5-|
-----------------|-----------------|-----------------|-----------------|
 Seventeen...      shouldn't...      still...          family                      

Seventeen, shouldn't be, 
Still having trouble with the family
Mum and John, aren't getting on
She gets the feeling that she's doing something wrong

D5              A5           G5
What's going on? Hard to say
                   Em
Thinks her Mum and John are gonna separate
D5               A5         G5
She's seen it all on the TV
                 Em
It's different in reality

Chorus
   D5  A5      G5        B5  A5  D5
-----------------|-----------------|
-----------------|-----------------|
---7-7-----------|---------------7-|
---7-7-7-7---x-5-|-5-----9-9-7-7-7-|
---5-5-7-7---x-5-|-5---5-9-9-7-7-5-|
-------5-5---x-3-|-3---3-7-7-5-5---|

I get a rush out of breaking things up
I get a kick out of pushing you off
But the feelings that I'm feeling that I'm gonna throw up
   G5
It goes without saying, yeah

Play intro

Verse
Been hanging out at the arcades
Been spliffing up, and getting laid
But nothing ever fills the hole
The emptiness she only knows

The bitter fruit, the nausea
The consequence, she can't deny
But angels with dirty wings
Never give good advice

Chorus

Play intro

   Em                        G
It goes without saying, (it goes without saying)
    D                    A
The way I'm feeling that I'm feeling inside
It goes without saying (it goes without saying)
The way I'm feeling being eaten alive
It goes without saying (it goes without saying)
The way I'm feeling that I'm feeling inside
It goes without saying

Chorus

Intro to finish

http://www.sparkystabs.co.uk
Добавлено: 18.06.2012
Другие материалы по этой песне:
  • Аккорды и текст

Страница создана 18.06.2012
http://primanota.ru/dum-dums/it-goes-without-saying-chords.htm
Привет, Гость.
Предлагаем пройти революционный курс по гитаре.
Подарок от PrimaNota.Ru, забирай!