PrimaNota.ru - самый крупный в мире бесплатный архив песенных текстов, аккордов, табулатур и нот


Dum Dums - Everyday I Talk To God - таба, видео

Регистрация Запомнить меня
Войти через:  Facebook Google Twitter Vk Yandex Mail.ru

Dum Dums - Everyday I Talk To God - таба, видео

Печатать
Просмотров: 102
Dum Dums - Everyday I Talk To God

Intro (let ring where possible)
E|-----------------|-------------------|----------------------|------------------|
B|-----------------|-------------------|----------------------|------------------|
G|-----9-----9-----|--------9------9---|-9-10-10---10---10-10-|---9---12---9-----|
D|-7-----7-------9-|---10-------10-----|----------------------|------------------|
A|-----------------|-------------------|----------------------|------------------|
E|-----------------|-------------------|----------------------|------------------|

Verse (PM notes on A string)
-----------------|-------------------|------------------|-------------------|
-----------------|-------------------|------------------|-------------------|
-----------------|-------------------|------------------|-------------------|
-------5---------|---5-----------5---|-------2----------|---2-----2h3-2-----|
-0-3---------0-3-|-------0-3-3-------|-0-3----------0-3-|-------0-------3-0-|
-----------------|-------------------|------------------|-------------------|

Chorus
C5                 G5
Everyday I talk to God 
                        F5
And he tells me that he loves me 
So I ask him if he's drunk
                      C5 
And I ask him if he's sorry
                             G5 
For the way the world turned out
                      F5 
Is it better than the movie 
Is he sick of us already 
Everyday I talk to...

Middle
-----------------|-----------------|
-----------------|-----------------|
-----------------|-----------------|
-5-5-5-5-5-5-5-5-|-5-5-5-5-5-5-5-5-|     x2
-3-3-3-3-3-3-3-3-|-7-7-7-7-7-7-7-7-|
-----------------|-----------------|

------------------|------------------|
------------------|------------------|
------------------|------------------|   x2
-------10--10-----|---10--------10---|
-7-8-7--------7-8-|-------7-8-8------|
------------------|------------------|

Play that 4 times

Outro
------------------------|-------------------------|----------------------------|
------------------------|-------------------------|----------------------------|
--5--5--5----5--5--5----|--5--5--5--7----9----12--|----12--12----12--12--12----|
--5--5--5----5--5--5----|--5--5--5----------------|----------------------------|
--3--3--3----3--3--3----|--3--3--3--5----7----10--|----10--10----10--10--10----|
------------------------|-------------------------|----------------------------|

--------------------------------|----------------------------|----------------------------|
--------------------------------|----------------------------|----------------------------|
--12--12--12--12----12--12--12--|----------------------------|----------------------------|
--------------------------------|----------------------------|----------------------------|
--10--10--10--10----10--10--10--|--15----15--14----14----15--|----15--14--------14----15--|
--------------------------------|----------------------------|--------------15------------|

----------------------------|--------------------------|----------------------------|
----------------------------|--------------------------|----------------------------|
----------------------------|--------------------------|----------------------------|
----------------------------|----------------------14--|----14--14----14--14--14----|
----15--14--------14----15--|----15----17----17--------|----------------------------|
--------------15------------|--------------------------|----------------------------|

------------------------------|------------------------------|----------------------------|
------------------------------|------------------------------|----------------------------|
------------------------------|------------17----17----------|------------17----17--------|
--14--14--14--15----14----17--|----17--14------------14--17--|----17--14------------14----|
------------------------------|------------------------------|----------------------------|
------------------------------|------------------------------|----------------------------|

------------------------------|--------------------------|------------------------------|
------------------------------|--------------------------|------------------------------|
--17--17--16----19--16----17--|----17--16--19----16------|--17--17--16----19--16----17--|
----------------17------------|--------------------------|--17--17----------------------|
------------------------------|--------------------------|------------------------------|
------------------------------|--------------------------|------------------------------|

--------------------------|--------------------|
--------------------------|--------------------|
----17--16----19--16------|--17----------------|
--------------------------|--17----------------|
--------------------------|--------------------|
--------------------------|--------------------|

http://www.sparkystabs.co.uk
Добавлено: 21.02.2012
Другие материалы по этой песне:
  • Аккорды и текст

Страница создана 21.02.2012
http://primanota.ru/dum-dums/everyday-i-talk-to-god-chords.htm
Привет, Гость.
Предлагаем пройти революционный курс по гитаре.
Подарок от PrimaNota.Ru, забирай!