PrimaNota.ru - самый крупный в мире бесплатный архив песенных текстов, аккордов, табулатур и нот


Duke Special - Let You Down - таба, видео

Регистрация Запомнить меня
Войти через:  Facebook Google Twitter Vk Yandex Mail.ru

Duke Special - Let You Down - таба, видео

Печатать
Просмотров: 90
Duke Special - Let You Down - Adventures in Gramaphone.
www.dukespecial.com
Orignal Tab by: Chris Walker
Arranged for Guitar(s)


Intro: Electric Guitar, lots of vibrato.


|-----------------------------|
|-----------------------------|
|-5---8-7-5-4---5--7-8-5-4----|
|-----------------------------|
|-3---6-5-3-2---3--5-6-3-2----|
|-----------------------------|repeat.

G barre
I let you down
I let you down
I did it well, I gave you hell
               Am barre
And messed you around.
C               Am
I was wrong and caught red handed
C                  Am
It didn't work the way I planned it
C                   Am                A
I wish I hadn't dressed you with that frown
N.C.
I let you down.

|-----------------------------|
|-----------------------------|
|-5---8-7-5-4---5--7-8-5-4----|
|-----------------------------|
|-3---6-5-3-2---3--5-6-3-2----|
|-----------------------------|repeat.

G barre
I mucked it up
I mucked it up
You saw the side I tried to hide
                 Am barre
And that was too much
C             Am
I could go to church on Sunday
C              Am
Maybe I'd be alright Monday
C                Am            A
Amazin how this grace helps me rebound
I let you down.

|-----------------------------|
|-----------------------------|
|-5---8-7-5-4---5--7-8-5-4----|
|-----------------------------|
|-3---6-5-3-2---3--5-6-3-2----|
|-----------------------------|repeat through next verse.

Oh was it really me
Who jumped in first and made you curse
Just at the sight of me
How could it be

G-5-------7---------5-------7-|
D-----------------------------|
A-3-------5---------3-------5-|
E-----------------------------|

That I'd become the kind of one
G barre
I swore I'd never be

Guitar 2: Freely, along these lines, optional slides.

E----------------------------------------------------------------------|
B--8----10----12----8-----10-----12-----10----8----10---12---15--10--8-|
G----------------------------------------------------------------------|
D----------------------------------------------------------------------|
A----------------------------------------------------------------------|
E----------------------------------------------------------------------|

C               Am
I was wrong and caught red handed
C                  Am
It didn't work the way I planned it
C                   Am                A
I wish I hadn't dressed you with that frown
G
I let you down
G
I let you down
G               Bass note G.
I let you       down

Note: It is a requirement of this song to sing with an irish accent, it is imperitive 
"down" be pronounced, "Dowyn". Also parts of this mimic the backing singers and may not be 
actual chords used by the band.

Original Lyrics and Music by Duke Special
Добавлено: 18.03.2012
Другие материалы по этой песне:
  • Аккорды и текст

Страница создана 18.03.2012
http://primanota.ru/duke-special/let-you-down-chords.htm
Привет, Гость.
Предлагаем пройти революционный курс по гитаре.
Подарок от PrimaNota.Ru, забирай!