PrimaNota.ru - самый крупный в мире бесплатный архив песенных текстов, аккордов, табулатур и нот


Duffy - Rockferry - аккорды и текст, таба, видео

Регистрация Запомнить меня
Войти через:  Facebook Google Twitter Vk Yandex Mail.ru

Duffy - Rockferry - аккорды и текст, таба, видео

Печатать
Просмотров: 195
Rockferry
Duffy
     ______________
    /             /
   /  Duffy      /
  /  Rockferry  /
 / (2008)      /
/_____________/

I decided to transcribe this album, as I simply fell for Duffy's beautiful
voice and these wonderful songs. And I got a great exercise out of it! :)
Normally I'm not into standard pop music, but this caught me by being really
soulful and intelligent music. It wasn't just standard pop music after all.

This music generally is based on chords, so it's obvious also to transcribe it
as chords. But of course, I have also added the essential guitar parts and chord
suggestions! If you find anything is missing somewhere in any song, please mail
me, and I'll add it to the tab!

To make this huge tab a bit easier to see through, I've separated the lyrics
from the chords and gathered them at the end, after the chords.
Each song is also submitted separately on this site, so in the bottom of the
tab, after the lyrics, you can find the link to all the songs' individual tabs.
                                       Jon Sebastian Frederiksen - 7th /June /10


                                 and for questions, comments and corrections...
                                          ...just mail me at Maitinin@gmail.com!


********************************************************************************


 1. Rockferry             (Duffy, Bernard Butler)
 2. Warwick Avenue        (Duffy, Jimmy Hogarth, Eg White)
 3. Serious               (Duffy, Bernard Butler)
 4. Stepping Stone        (Duffy, Steve Booker)
 5. Syrup and Honey       (Duffy, Bernard Butler)
 6. Hanging on Too Long   (Duffy, Jimmy Hogarth, Eg White)
 7. Mercy                 (Duffy, Steve Booker)
 8. Delayed Devotion      (Duffy, Jimmy Hogarth, Eg White)
 9. I'm Scared            (Duffy, Jimmy Hogarth)
10. Distant Dreamer       (Duffy, Bernard Butler)


********************************************************************************

1. ______________
  /             /
 /  Rockferry  /
/_____________/

This song is wonderfully simple - nothing more than four verses and four chords!
 Chords:
     D    C    G    F
e:---2----0----3----1---:
B:---3----1----0----1---:
G:---2----0----0----2---:
D:---0----2----0----3---:
A:--------3----2----3---:
E:-------------3----1---:



 Intro:
| D | C | D | C |


 Verse:
| D | C | D | C |
| D | C | D | C |

| G | F | G | F |
| D | C | D | C |

| D | C |


 Verse

 Verse

 Verse, on the last two bars, | D | C |, the guitar solo starts, and
        the song continues with repeating | D | C | till fading out.





********************************************************************************

2. ___________________
  /                  /
 /  Warwick Avenue  /
/__________________/


 Intro:
| Bb | Dm | Eb | F#7M   |


 1st Verse:
||: Bb | Dm | Eb | F#7M   :|| 3x

| Bb | Dm | Ab | F#  F |



 Chorus:
(all the choruses are similar, expect for their endings)

| Bb  Fm7 | C#  Eb | Cm7  Bb7 | Ab  Gm7 |
                 [break]
| Cm7  Gm7 | Fm7 | Eb  |

(1st Chorus-ending)
            2/4
| Dm7  Gm7 | Cm7 |



 Intro


 2nd Verse:
||: Bb | Dm | Eb | F#7M   :|| 2x

| Bb | Dm | Ab | F#  F |



 Chorus:
(2nd Chorus-ending)
                       2/4
| Dm7  Gm7 | Cm7  Fm7 | Eb | Bb |



 Bridge:
||: Cm  Gm/Bb | F/A | Ab7M    Gm7 :|| 2x

| Cm | Fm | Ab  Gm | F#  F |



 Chorus:
(3rd Chorus-ending)
| Dm7  Gm7 | Cm7  Fm7 | Eb  Bb |

| Dm7  Gm7 | Cm7  Fm7 | Eb  Bb ...



 Chords
**********
 Intro/Verse:
     Bb   Dm   Eb  F#7M    Ab   F#   F
e:---6----5----------6-----4----2----1---:
B:---6----6----8-----6-----4----2----1---:
G:---7----7----8-----6-----5----3----2---:
D:---8----7----8-----8-----6----4----3---:
A:---8----5----6-----9-----6----4----3---:
E:---6---------------------4----2----1---:

 Chorus:
     Bb   Fm7   C#   Eb  Cm7  Bb7   Ab  Gm7  Dm7
 :---6-----1--------------3----1----4----3----5---:
 :---6-----1----6----8----4----3----4----3----6---:
 :---7-----1----6----8----3----1----5----3----5---:
 :---8-----1----6----8----5----3----6----3----7---:
 :---8-----3----4----6----3----1----6----5----5---:
 :---6-----1------------------------4----3--------:

 Bridge:
     Cm  Gm/Bb  F/A  Ab7M    Gm   Fm   Ab   Gm   F#   F
 :---3-----3-----1-----------3----1----4----3----2----1---:
 :---4-----3-----1-----4-----3----1----4----3----2----1---:
 :---5-----3-----2-----5-----3----1----5----3----3----2---:
 :---5-----5-----3-----5-----5----3----6----5----4----3---:
 :---3-----x-----0-----6-----5----3----6----5----4----3---:
 :---------6-----------4-----3----1----4----3----2----1---:





********************************************************************************

3. _____________
  /            /
 /  Serious   /
/____________/
  

 Chords:
     E6   C#      A   C#m   D*     Bbm7  Bm7   E6  C#7   D
e:---9----4--- ---5----4---(7)-- ---6-----7----9----9--------:
B:---9----6--- ---5----5----7--- ---6-----7----9----9----7---:
G:---9----6--- ---6----6----7--- ---6-----7----9---10----7---:
D:---9----6--- ---7----6----7--- ---6-----7----9----9----7---:
A:---7----4--- ---7----4----5--- ---8-----9----7---11----5---:
E:------------ ---5------------- ---6-----7---------9--------:
                    *the top note in bracket 'B' is sometimes
                     strummed, which makes this chord a D6.



 Intro:         2/4
               [break]
| E6 | C# | E6 | C#  |



 Pre-Verse:
| A | C#m | D | A |

 Verse:
||: A | C#m | D | A :|| 4x (shortly hit the Bbm7 after the last A)



 Pre-Chorus:
| Bm7 | E6 | C#7 | D |


 Chorus:
| A | C#m | D | A |



 Verse

 Pre-Chorus

 2x Chorus

 
Добавлено: 10.02.2014
Другие материалы по этой песне:
  • Аккорды и текст

Страница создана 08.06.2013
http://primanota.ru/duffy/rockferry-chords.htm
Привет, Гость.
Предлагаем пройти революционный курс по гитаре.
Подарок от PrimaNota.Ru, забирай!