PrimaNota.ru - самый крупный в мире бесплатный архив песенных текстов, аккордов, табулатур и нот


Duff Mckagans Loaded - Flatline - таба, видео

Регистрация Запомнить меня
Войти через:  Facebook Google Twitter Vk Yandex Mail.ru

Duff Mckagans Loaded - Flatline - таба, видео

Печатать
Просмотров: 140
----------------------------------------------------------------------------
                             Flatline solos - Duff Mckagans Loaded
----------------------------------------------------------------------------
Hey guys, hope i can be of some help to you! i tried to do it exactly as it is played 
it sounds right! any q's please ask!

Tabbed by:Jake
Email:short.ass.jake@hotmail.co.uk
Tuning:standard, well thats what i did it in.

Intro solo

e|--8br-----6br-4-----6br-4------------|
B|------6-7-------6---------6---6-7----|
G|------------------4---------4-----6--|
D|-------------------------------------|
A|-------------------------------------|
E|-------------------------------------|
   Cool bit after chorus
e|----------------------------------------------------15b-15-15-15p14---------|
B|--18b-----16-17-16h17p16----------------------17--------------------17------|
G|-------16----------------16-18-16h18-18p16-------18--------------------14-14|
D|-------------------------------------------18-------------------------------|
A|----------------------------------------------------------------------------|
E|----------------------------------------------------------------------------|
  Solo - hold the bended notes - do not return them unless it says!
e|----------------------------------|
B|--------------6b-6b-6b-8b-10------|
G|--8b-8b-8br-6----------------8-6--|
D|----------------------------------|
A|----------------------------------|
E|----------------------------------|

   SOLO FAST PART!
e|----------------------------------9---------15br-12-----|
B|------------------------------------12p9h12---------14--|
G|-6-6-----9------11-9------------------------------------|
D|-----9p6---11p9------11p9----9h11-----------------------|
A|--------------------------11----------------------------|
E|--------------------------------------------------------|
  Solo end
e|---------------------------------|
B|---------------------------------|
G|-----------13-11----------13-----|
D|--11-11-14-------11-11-14----14--|
A|---------------------------------|
E|---------------------------------|
  Outro solo
e|----------------------------------------------------|
B|----------------------------------------------------|
G|------------------------12b-------12b----------12b--|
D|--11-13br-11----13br-11-----11-11-----13-13-13------|
A|-------------14-------------------------------------|
E|----------------------------------------------------|
  Outro solo continued
e|---------------------------------------------------------------|
B|-----------------------------------------------9---------------|
G|---------------------11b-11b-11b-11b-11br-9-11---9-11-9-11-----|
D|--11-13br-11----13br---------------------------------------11--|
A|-------------14------------------------------------------------|
E|---------------------------------------------------------------|
                        ^hold bended notes^
                         until return.

| /  slide up
| \  slide down
| h  hammer-on
| p  pull-off
| ~  vibrato
| +  harmonic
| x  Mute note, b bend, r return.
============================================================================
Добавлено: 27.05.2012
Другие материалы по этой песне:
  • Аккорды и текст

Страница создана 23.04.2012
http://primanota.ru/duff-mckagans-loaded/flatline-chords.htm
Привет, Гость.
Предлагаем пройти революционный курс по гитаре.
Подарок от PrimaNota.Ru, забирай!