PrimaNota.ru - самый крупный в мире бесплатный архив песенных текстов, аккордов, табулатур и нот


Duff Mckagan - Believe In Me - бас-таба, видео

Регистрация Запомнить меня
Войти через:  Facebook Google Twitter Vk Yandex Mail.ru

Duff Mckagan - Believe In Me - бас-таба, видео

Печатать
Просмотров: 133
+++++++++++++++++++++++++++++++++++++++++++++++++++++++++++++++++++++++++++++++
Believe in Me - Duff McKagan
+++++++++++++++++++++++++++++++++++++++++++++++++++++++++++++++++++++++++++++++

Transcribed By: Garth Rhodes
Tuning: 1/2 a step down on all strings
Effects: Chorus, Mid/High Treble, High Eq

/ = slide
h = hammer-on
p = pull-off
H = hold
b = bend
r = ring

INTRO: "When I was a young boy..."
F#----------------------------------------------------------------------|
C#----------------------------3-4-5------7---7h9-7----------------------|
G#----------------------------------------------------------------------|
D#--3------5------3------5------------------------------3-------5-------|

MAIN RIFF:
F#----------------------------------------------|
C#----------------------------------------------|
G#-----------3----------------------3-----------|
D#--5--5--5----5-3-5--0-0--5--5--5----5-3----5--| x 4

VERSE: "Now that I'm a grown man..."
F#-----------------------------------------------------------------|
C#-----------------------------------------------------------------|
G#-----------------------------------------------------------------|
D#--3--3-0-3-3--3---5--5--5-5-5-5---3--3-0-3-3--3---5--5--5-5-5-5--|

F#----------------------------4------------------------------------|
C#------------------------0-7--------------------------------------|
G#-----------------------------------------------------------------|
D#--3--3-0-3-3--3---5--5------------3--3-0-3-3--3---5-5-5-5-5-5-55-|

CHORUS:
F#----------------------------------------------|
C#----------------------------------------------|
G#-----------3----------------------3-----------|
D#--5--5--5----5-3-5--0-0--5--5--5----5-3----5--| x 2

F#--------------------------------|
C#-----3------3-------5------5----|
G#--------------------------------|
D#--1------1----1--3------3----3--|

F#----------------------------------------------|
C#----------------------------------------------|
G#-----------3----------------------3-----------|
D#--5--5--5----5-3-5--0-0--5--5--5----5-3----5--|

F#---------------------------------------------|
C#-----3------3-------5------5-----------------|
G#--------------------------------------5-3-0--|
D#--1------1----1--3------3----3--3-2-0--------|

VERSE #2:
F#-----------------------------------------------------------------|
C#-------------------------7------------------------------7-7h9-7--|
G#---------------------5/7-----------------------------------------|
D#--3--3-0-3-3--3---5---------------3--3-0-3-3--3---5--5-----------|

F#-----------------------------------------------------------------|
C#-----------------------------------------------------------------|
G#-----------------------------------------------------------------|
D#--3--3-0-3-3--3---5--5--5-5-5-5---3--3-0-3-3--3---5H-------------|

CHORUS 2:
F#----------------------------------------------|
C#----------------------------------------------|
G#-----------3----------------------3-----------|
D#--5--5--5----5-3-5--0-0--5--5--5----5-3----5--| x 2

F#--------------------------------|
C#-----3------3-------5------5----|
G#--------------------------------|
D#--1------1----1--3------3----3--|

F#----------------------------------------------|
C#----------------------------------------------|
G#-----------3----------------------3-----------|
D#--5--5--5----5-3-5--0-0--5--5--5----5-3----5--|

F#--------------------------------------------------------------------------|
C#-----3------3-------5------5----------------------------------------------|
G#-------------------------------------3--3-3-------5--5-------------3--3-3-|
D#--1------1----1--3------3----3-3-2-0--------3-2-0------0-1-2-3-2-0--------|

F#------------------------------------------------------------|
C#------------------------------------------------------------|
G#--------5--5-------------3--3-3-------5--5-------------3----|
D#--3-2-0------0-1-2-3-2-0--------3-2-0------0-1-2-3-2-0------|

SOLO: (listen out for slight variations
       eg: open notes, octaves and hammer-ons)
F#--------------------------------------------------------------------------|
C#--------------------------------------------------------------------------|
G#--------------------------------------------------------------------------|
D#--5--5--5-5-5--5-5--5--5--5-5-5--5-5--5--5--5-5-5--5-5--5--5--5-5-5--5-5--| repeat

"I still make my own law..."
F#--------------------------------------------------------------------------|
C#--------------------------------------------------------------------------|
G#--------------------------------------------------------------------------|
D#--3--3--3-3-3--3-3--5--5--5-5-5--5-5--3--3--3-3-3--3-3--5--5--5-5-5--5-5--| x 2

ENDING: "Believe in me..."
F#----------------------------------------------|
C#----------------------------------------------|
G#-----------3----------------------3-----------|
D#--5--5--5----5-3-5--0-0--5--5--5----5-3----5--| x 8
Добавлено: 08.03.2012
Другие материалы по этой песне:

Страница создана 08.03.2012
http://primanota.ru/duff-mckagan/believe-in-me-chords.htm
Привет, Гость.
Предлагаем пройти революционный курс по гитаре.
Подарок от PrimaNota.Ru, забирай!