PrimaNota.ru - самый крупный в мире бесплатный архив песенных текстов, аккордов, табулатур и нот


Due Le Quartz - Rodeo - таба, видео

Регистрация Запомнить меня
Войти через:  Facebook Google Twitter Vk Yandex Mail.ru

Due Le Quartz - Rodeo - таба, видео

Печатать
Просмотров: 118
Due le Quartz - Rodeo

Tabbed by : Keyser
Date :  3 / 05 / 06

A bit of a shame, as they disbanded in 2002, but as Miyavi is still around, it's not all bad...

Tuning - C#,F#,B,E,G#,C#

Palm Mute or Left Hand Mute : X
Slide Down :
Slide Up : /
Tremolo : ~
Harmonics : ()
Hammer On : h
Pull Off : p
Tremolo Picking : TP under tab
Palm Mute : PM under tab
Tremolo Bar : TBR under tab (/ means up,  means down)
Pre-bend : prb

Intro :

C#|--------------------------------------------------------------------------|
G#|--------------------------------------------------------------------------|
E |--------------------------------------------------------------------------|
B |--------------------------------------------------------------------------|
F#|--------------------------------------------------------------------------|
C#|--0-3-0-2-0-0-3-0---0-3-0-2-0-0-3-0---0-3-0-2-0-0-3-0---0-3-0-5-0-0-3-0-0-|
    PM.......................................................................


C#|------------------------------------------------------------------|
G#|------------------------------------------------------------------|
E |------------------------------------------------------------------|
B |------------------------------------------------------------------|
F#|------------------------------------------------------------------|
C#|--0-3-0-2-0-0-3-0---0-3-0-2-0-0-3-0---0-3-0-2-0-0-3-0---0-5-3-----|
    .............................................................

For second half, stop palm muting and start to gradually speed up and add second guitar :

C#|--------------------------------------------------------------------------|
G#|--------------------------------------------------------------------------|
E |--------------------------------------------------------------------------|
B |--------------------------------------------------------------------------|
F#|---3-0-2-0-0-3-0---0-3-0-2-0-0-3-0---0-3-0-2-0-0-3-0---0-3-0-5-0-0-3-0---|
C#|--------------------------------------------------------------------------|

C#|-----------------------------------------------------------------|
G#|-----------------------------------------------------------------|
E |-----------------------------------------------------------------|
B |-----------------------------------------------------------------|
F#|--0-3-0-2-0-0-3-0---0-3-0-2-0-0-3-0---0-3-0-2-0-0-3-0---0-5-3----|
C#|-----------------------------------------------------------------|

Heavy effects/crazy bit :

C#|----------------------------------------------------------------|
G#|----------------------------------------------------------------|
E |----------------------------------------------------------------|
B |--7777777777--8888888888--7777777777--66666-77777--5555555555---|
F#|--5555555555--6666666666--5555555555--44444-55555--3333333333---|
C#|----------------------------------------------------------------|

C#|---------------|
G#|---------------|
E |---------------|
B |--7777777777---|
F#|--5555555555---|
C#|---------------|

C#|--------------------------------------------------------------------------|
G#|--------------------------------------------------------------------------|
E |--------------------------------------------------------------------------|
B |--8888888888--1111111111--1212121212--1010101010--999---------------------|
F#|--6666666666--9 9 9 9 9 --1010101010--8 8 8 8 8 --777---------------------|
C#|--------------------------------------------------------------------------|

Break :

C#|----------------------------------------------------------------------|
G#|----------------------------------------------------------------------|
E |----------------------------------------------------------------------|
B |--7-----8--7--5---6---------------------------------------------------|
F#|--5-----6--5--3---4---0-3p0-0-2p0-0-0-3p0-0--0-3p0-0-2p0-0-0-3p0-0----|
C#|----------------------------------------------------------------------|

C#|----------------------------------------------------------------------|
G#|----------------------------------------------------------------------|
E |----------------------------------------------------------------------|
B |--7-----8--7--5---6------------------------------------------3^-------|
F#|--5-----6--5--3---4---0-3p0-0-2p0-0-0-3p0-0--0-3p0-0-2p0-0-0-3^-------|
C#|----------------------------------------------------------------------|

After Break(s) :

C#|----------------------|
G#|----------------------|
E |----------------------|
B |--777--6--5--6--7-----|   (x8)
F#|--555--4--3--4--5-----|
C#|----------------------|
	PM................

C#|-----------------------|
G#|-----------------------|
E |------5--8--7--5-------|
B |--/7-------------------|    (Played half-way through the above)
F#|-----------------------|
C#|-----------------------|
	TP.................

Second Guitar bit after break :

C#|-------------------------------------------|
G#|-------------------------------------------|
E |-------------------------------------------|
B |--7--5--7--8--7--5----7--5--7--8--7--5-----|
F#|-------------------------------------------|
C#|-------------------------------------------|

Solo :

C#|--------------------------------------------------------------------------|
G#|--12^----12---------------------------------------------------------------|
E |--12^----12-----------------------/14~--13h14p13----------------13-14^----|
B |---------------------------X----------------------15--14--15--------------|
F#|---------------------------X----------------------------------------------|
C#|--------------------------------------------------------------------------|
			TBR    ////

C#|-------------------------------------------------------------------------|
G#|-------------------------------(13prb)------/15~--14h15p14---------------|
E |--/14~--13h14p13---------------------------------------------15--14--15--|
B |-------------------15--14--15--------------------------------------------|
F#|-------------------------------------------------------------------------|
C#|-------------------------------------------------------------------------|

C#|----------------------------------------------------------|
G#|--14--15^-------------------------------------------------|
E |--------------/14~--13h14p13----------------13-14^--------|
B |-------------------------------15--14--15-----------------|
F#|----------------------------------------------------------|
C#|----------------------------------------------------------|

C#|---------------------------------------------------             -------|
G#|---------------------------------------------------             -------|
E |---------------------------------------------------             -------|
B |--7--7-5-7----8--8-10-8----7--7-8-5----5--5-6-5----  (x2) then  ---7---|
F#|--5-----------6------------5-----------3-----------             ---5---|
C#|---------------------------------------------------             -------|

Repeat Intro again (slowly at first), then play through the Verse bit again...

...and that's about it...
Добавлено: 06.07.2012
Другие материалы по этой песне:
  • Аккорды и текст

Страница создана 06.07.2012
http://primanota.ru/due-le-quartz/rodeo-chords.htm
Привет, Гость.
Предлагаем пройти революционный курс по гитаре.
Подарок от PrimaNota.Ru, забирай!