PrimaNota.ru - самый крупный в мире бесплатный архив песенных текстов, аккордов, табулатур и нот


Ducks Deluxe - Coast To Coast - бас-таба, видео

Регистрация Запомнить меня
Войти через:  Facebook Google Twitter Vk Yandex Mail.ru

Ducks Deluxe - Coast To Coast - бас-таба, видео

Печатать
Просмотров: 143
Ducks Deluxe-Coast To Coast 
Bass Tab

I couldn't find anything for this song, nothing so yeah. I think it's right, but 
there will all ways be mistakes. Watch out for timings on the end of the verses 
and so on. Hope you find this helpful and Enjoy.  

Intro:
G|---------------|------|
D|-5-------------|-5----|
A|----5----------|----5-|
E|-------5-------|------|

G|-----------------|
D|-----6-6-9-9-6-6-| x4
A|-7-7-------------|
E|-----------------|

Verse1:
G|-----------------|    |-----------------|
D|-----6-6-9-9-6-6-| x2 |-----2-2-5-5-2-2-| x2
A|-7-7-------------|    |-3-3-------------|
E|-----------------|    |-----------------|


G|-----------------|    |---------|
D|-----------------| x2 |---------|
A|-----4-4-7-7-4-4-|    |-4--5--6-|
E|-5-5-------------|    |---------|

Pre-verse:
G|-----------------|
D|-----6-6-9-9-6-6-| x4
A|-7-7-------------|
E|-----------------|

Verse2:
G|-----------------|    |-----------------|
D|-----6-6-9-9-6-6-| x2 |-----2-2-5-5-2-2-| x2
A|-7-7-------------|    |-3-3-------------|
E|-----------------|    |-----------------|

G|-----------------|    |---------|
D|-----------------| x2 |---------|
A|-----4-4-7-7-4-4-|    |-4--5--6-|
E|-5-5-------------|    |---------|

Pre-Chorus: 
G|-----------------|
D|-----6-6-9-9-6-6-|
A|-7-7-------------|
E|-----------------|

Chorus:
G||------------------|    |-----------------|     ||
D||.-----------------| x2 |-----------------| x2 .||
A||.-----6-6-9-9-6-6-|    |-----4-4-7-7-4-4-|    .||
E||--7-7-------------|    |-5-5-------------|     ||

Intro:
G|---------------|-------------|-----------------|
D|---------------|-5-----------|-----------------|
A|--7--5--7------|----5--------|-----------------|
E|---------------|-------5-----|-5-5-5-5-5-5-5-5-|


Solo:
G|-----------------|    |-----------------|
D|-----6-6-9-9-6-6-| x2 |-----2-2-5-5-2-2-| x2
A|-7-7-------------|    |-3-3-------------|
E|-----------------|    |-----------------|


G|-----------------|    |---------|
D|-----------------| x2 |---------|
A|-----4-4-7-7-4-4-|    |-4--5--6-|
E|-5-5-------------|    |---------|

Pre-Chorus: 
G|-----------------|
D|-----6-6-9-9-6-6-|
A|-7-7-------------|
E|-----------------|

Chorus:
G||------------------|    |-----------------|     ||
D||.-----------------| x2 |-----------------| x2 .||
A||.-----6-6-9-9-6-6-|    |-----4-4-7-7-4-4-|    .||
E||--7-7-------------|    |-5-5-------------|     ||

Intro:
G|---------------|-------------|-----------------|
D|---------------|-5-----------|-----------------|
A|--7--5--7------|----5--------|-----------------|
E|---------------|-------5-----|-5-5-5-5-5-5-5-5-|

Verse3:
G|-----------------|    |-----------------|
D|-----6-6-9-9-6-6-| x2 |-----2-2-5-5-2-2-| x2
A|-7-7-------------|    |-3-3-------------|
E|-----------------|    |-----------------|

G|-----------------|    |---------|
D|-----------------| x2 |---------|
A|-----4-4-7-7-4-4-|    |-4--5--6-|
E|-5-5-------------|    |---------|

Pre-verse:
G|-----------------|
D|-----6-6-9-9-6-6-| x4
A|-7-7-------------|
E|-----------------|

Verse4:
G|-----------------|    |-----------------|
D|-----6-6-9-9-6-6-| x2 |-----2-2-5-5-2-2-| x2
A|-7-7-------------|    |-3-3-------------|
E|-----------------|    |-----------------|

G|-----------------|    |---------|
D|-----------------| x2 |---------|
A|-----4-4-7-7-4-4-|    |-4--5--6-|
E|-5-5-------------|    |---------|

Pre-Chorus: 
G|-----------------|
D|-----6-6-9-9-6-6-|
A|-7-7-------------|
E|-----------------|

Chorus:
G||------------------|    |-----------------|     ||
D||.-----------------| x2 |-----------------| x2 .||
A||.-----6-6-9-9-6-6-|    |-----4-4-7-7-4-4-|    .||
E||--7-7-------------|    |-5-5-------------|     ||

Intro:
G|---------------|-------------|-----------------|
D|---------------|-5-----------|-----------------|
A|--7--5--7------|----5--------|-----------------|
E|---------------|-------5-----|-5-5-5-5-5-5-5-5-|

Solo2:
G|-----------------|    |-----------------|
D|-----6-6-9-9-6-6-| x2 |-----2-2-5-5-2-2-| x2
A|-7-7-------------|    |-3-3-------------|
E|-----------------|    |-----------------|


G|-----------------|    |-------------|
D|-----------------| x2 |-------------|  solo2 x2
A|-----4-4-7-7-4-4-|    |-4-4-5-5-6-6-|  
E|-5-5-------------|    |-------------|

Pre-Chorus: 
G|-------------------|
D|-----6-6-9-9-6-6---|
A|-7-7-------------7-|
E|-------------------|

Chorus:
G||------------------|    |-----------------|     ||
D||.-----------------| x2 |-----------------| x2 .||
A||.-----6-6-9-9-6-6-|    |-----4-4-7-7-4-4-|    .||
E||--7-7-------------|    |-5-5-------------|     ||

Outro:
G|---------------|-------------|
D|---------------|-5-----------|
A|--7--5--7------|----5--------|
E|---------------|-------5-----|

Enjoy
Добавлено: 11.07.2013
Вам также может быть интересно:
Другие материалы по этой песне:
  • Аккорды и текст

Страница создана 11.07.2013
http://primanota.ru/ducks-deluxe/coast-to-coast-chords.htm
Привет, Гость.
Предлагаем пройти революционный курс по гитаре.
Подарок от PrimaNota.Ru, забирай!