PrimaNota.ru - самый крупный в мире бесплатный архив песенных текстов, аккордов, табулатур и нот


Dubliners - Whisky In The Jar - текст песни, бас-таба, видео

Регистрация Запомнить меня
Войти через:  Facebook Google Twitter Vk Yandex Mail.ru

Dubliners - Whisky In The Jar - текст песни, бас-таба, видео

Печатать
Просмотров: 183
Уроки эстрадного вокала в Санкт-Петербурге
MAIN RIFF  (This version played in D)

G-------------------------------|
D-------------------------------|
A--5--5-5/4-2--2----5--5--5--5--|
E---5--------2--2--3--3----5--5-|

X2

CHORUS

G-------------------------------------|
D-------------------------------------|
A----7--7--5--5-----5--5--5--4/5--5---|
E--5--5------5--5--3--3----5----5---5-|    etc

As I was a goin' over the far famed Kerry mountains
I met with captain Farrell and his money he was counting
I first produced my pistol and I then produced my rapier
Saying "Stand and deliver" for he were a bold deceiver

Chorus:
Mush-a ring dum-a do dum-a da
Wack fall the daddy-o, wack fall the daddy-o
There's whiskey in the jar
Добавлено: 18.05.2012
Другие материалы по этой песне:
  • Аккорды и текст

Страница создана 18.05.2012
http://primanota.ru/dubliners/whisky-in-the-jar-chords.htm
Привет, Гость.
Предлагаем пройти революционный курс по гитаре.
Подарок от PrimaNota.Ru, забирай!