PrimaNota.ru - самый крупный в мире бесплатный архив песенных текстов, аккордов, табулатур и нот


Dub War - Cant Stop - бас-таба, видео

Регистрация Запомнить меня
Войти через:  Facebook Google Twitter Vk Yandex Mail.ru

Dub War - Cant Stop - бас-таба, видео

Печатать
Просмотров: 251
Уроки эстрадного вокала в Санкт-Петербурге
-------------------------------------------------------------------------------
                             Can't Stop - Dub War
-------------------------------------------------------------------------------
Tabbed by: Jay
E-mail: explorer57@rocketmail.com
Tuning: Standard


intro/outro 0:00                        x4
G|--------------------------------------|-----------|
D|---------9--------10-----10-----------|---10/15---|
A|-----8---------9----------------------|-----------|
E|-7----------8--------8----------------|-----------|


verse 0:11 (plays throughout most of the song, repeat as necessary)
G|------------------------------------------|
D|------------------------------------------|
A|-4~----------5----------------------------|
E|------5-----------4-----------------------|


Chorus 1:44                                                      x4
G|--------------------------------------------------------------|
D|--------------------------------------------------------------|
A|--4-4-4-4-4-----------------------5-5-5-5-5-------------------|
E|------------5-5-5-5-5--4-4-4-4-4------------------------------|


| /  slide up
| \  slide down
| h  hammer-on
| p  pull-off
| ~  vibrato
| +  harmonic
| x  Mute note
===============================================================================

Band Site: 
http://www.dubwar.co.uk/
http://en.wikipedia.org/wiki/Dub_War
Добавлено: 19.11.2013
Другие материалы по этой песне:
  • Аккорды и текст

Страница создана 19.11.2013
http://primanota.ru/dub-war/cant-stop-chords.htm
Привет, Гость.
Предлагаем пройти революционный курс по гитаре.
Подарок от PrimaNota.Ru, забирай!