PrimaNota.ru - самый крупный в мире бесплатный архив песенных текстов, аккордов, табулатур и нот


Dub Trio - Screaming At The Sea - таба, видео

Регистрация Запомнить меня
Войти через:  Facebook Google Twitter Vk Yandex Mail.ru

Dub Trio - Screaming At The Sea - таба, видео

Печатать
Просмотров: 86
-------------------------------------------------------------------------------
                      Screaming at the Sea - Dub Trio
-------------------------------------------------------------------------------
Tabbed by: Whoomit

Tuning: Drop D (DADGBe)

KEY:
Slide up       \
Slide down     /
Muted          x


INTRO:

e|-------------------------------------------------------------------|
B|-------------------------------------------------------------------|
G|---------11--------------13--------------11--------------7/9\7/9---|
D|---------x---------------x---------------x---------------x---------|
A|-0---0---9-------0---0---11------0---0---9-------0---0---5/7\5/7---|
D|-0---0-----------0---0-----------0---0-----------0---0-------------|

e|-------------------------------------------------------------------|
B|-------------------------------------------------------------------|
G|---------11--------------13--------------11------------------------|
D|---------x---------------x---------------x-------------------------|
A|-0---0---9-------0---0---11------0---0---9-----------5-------5-----|
D|-0---0-----------0---0-----------0---0-----------4-4---4-5-5---5---|


e|-------------------------------------------------------------------|
B|-------------------------------------------------------------------|
G|---------11--------------13--------------11--------------7/9\7/9---|
D|---------x---------------x---------------x---------------x---------|
A|-0---0---9-------0---0---11------0---0---9-------0---0---5/7\5/7---|
D|-0---0-----------0---0-----------0---0-----------0---0-------------|

e|-------------------------------------------------------------------|
B|-------------------------------------------------------------------|
G|---------11--------------13/19-----------11------------------------|
D|---------x---------------x---------------x-------------------------|
A|-0---0---9-------0---0---11/17---0---0---9-----------5-------5-----|
D|-0---0-----------0---0-----------0---0-----------4-4---4-5-5---5---|



0:32
Verse?
This part is heavily palm muted, and played off beat:

e|-2---2---2---2---2---2---|
B|-3---3---3---3---3---3---|
G|-2---2---2---2---2---2---|
D|-0---0---0---0---0---0---|
A|-------------------------|
D|-------------------------|

The guitar then stops and comes in with this again a few time later.


1:58
Breakdown?

e|-------------------------------------------------------------|
B|-----------------------------------------------------3-------|
G|-----2---------------2---------------2---------------2-------|
D|-----3---------------3---------------3---------------3-------|
A|-1-1-------------0-0-------------1-1-------------0-0---------|
D|-------------------------------------------------------------|

e|-------------------------------------------------------------|
B|-----------------------------------------------------3---3-3-|
G|-----2---------------2---------------2---------------2---2-2-|
D|---3-3---------------3-------------3-3---------------3---3-3-|
A|-1---------------0-0-------------1---------------0-0---------|
D|-------------------------------------------------------------|

e|-------------------------------------------------------------| Notes in brackets
B|----(3)-(3)---------(3)-(3)---------(3)-(3)---------(3)------| are sometimes
G|-----2---2-----------2---2-----------2---2-----------2-------| played
D|-----3---3-----------3---3-----------3---3-----------3-------| 
A|-1-1-------------0-0-------------1-1-------------0-0---------| 
D|-------------------------------------------------------------| 

Reapeat this last part until the outro, building it up.

3:25
Outro:
e|-------------------------------------------------------------------|
B|-------------------------------------------------------------------|
G|---------11--------------13--------------11--------------7/9\7/9---|
D|---------x---------------x---------------x---------------x---------|
A|-0---0---9-------0---0---11------0---0---9-------0---0---5/7\5/7---|
D|-0---0-----------0---0-----------0---0-----------0---0-------------|

e|-------------------------------------------------------------------|
B|-------------------------------------------------------------------|
G|---------11--------------13/19-----------11------------------------|
D|---------x---------------x---------------x-------------------------|
A|-0---0---9-------0---0---11/17---0---0---9-----------5-------5-----|
D|-0---0-----------0---0-----------0---0-----------4-4---4-5-5---5---|


e|-------------------------------------------------------------------|
B|-------------------------------------------------------------------|
G|---------11--------------13--------------11--------------7/9\7/9---|
D|---------x---------------x---------------x---------------x---------|
A|-0---0---9-------0---0---11------0---0---9-------0---0---5/7\5/7---|
D|-0---0-----------0---0-----------0---0-----------0---0-------------|

e|-------------------------------------------------------------------|
B|-------------------------------------------------------------------|
G|---------11--------------13/19-----------11------------------------|
D|---------x---------------x---------------x-------------------------|
A|-0---0---9-------0---0---11/17---0---0---9-----------5-------5-----|
D|-0---0-----------0---0-----------0---0-----------4-4---4-5-5---5---|
Добавлено: 16.07.2012
Другие материалы по этой песне:
  • Аккорды и текст

Страница создана 16.07.2012
http://primanota.ru/dub-trio/screaming-at-the-sea-chords.htm
Привет, Гость.
Предлагаем пройти революционный курс по гитаре.
Подарок от PrimaNota.Ru, забирай!