PrimaNota.ru - самый крупный в мире бесплатный архив песенных текстов, аккордов, табулатур и нот


Dub Trio - Respite - таба, видео

Регистрация Запомнить меня
Войти через:  Facebook Google Twitter Vk Yandex Mail.ru

Dub Trio - Respite - таба, видео

Печатать
Просмотров: 94
Guitar 1 - accoustic part
     E  E  E  E  E  E  E  E     E  E  E  E  E  E  E  E   
E||--------------------------|-----------5--L-----6-----|
B||--------------------6-----|--------------------------|
G||-----------------7-----7--|--------0-----0--L-----0--|
D||--------0-----0-----------|-----0--------------------|
A||-----3-----6--------------|--------------------------|
D||--3-----------------------|--5-----------------------|


  E  E  E  E  E  E  E  E     E  E  E  E  E  E  E  E   
--------------------------|--------------------------|
--------------------6-----|--------------------------|
-----------------7-----7--|--------7-----------7-----|
--------0-----0-----------|-----0-----0-----0-----0--|
-----3-----6--------------|--5-----------5-----------|
--3-----------------------|--------------------------|


  E  E  E  E  E  E  E  E     E  E  E  E  E  E  E  E   
--------------------------|-----------5--L-----6-----|
--------------------6-----|--------------------------|
-----------------7-----7--|--------0-----0--L-----0--|
--------0-----0-----------|-----0--------------------|
-----3-----6--------------|--------------------------|
--3-----------------------|--5-----------------------|


  E  E  E  E  E  E  E  E     E  E  E  E  S  S  S S E  E   
--------------------------|------------------------------|
--------------------6-----|------------------------------|
-----------------7-----7--|--------7---------------7-----|
--------0-----0-----------|-----0-----0--------0-L----0--|
-----3-----6--------------|--5-----------5h-6p-5---------|
--3-----------------------|------------------------------|


  E  E  E  E  E  E  E  E     E  E  E  E  E  E  E  E   
--------------------------|-----------5--L-----6-----|
--------------------6-----|--------------------------|
-----------------7-----7--|--------0-----0--L-----0--|
--------0-----0-----------|-----0--------------------|
-----3-----6--------------|--------------------------|
--3-----------------------|--5-----------------------|


  E  E  E  E  E  E  E  E     E  E  E  E  E  E  E  E   
--------------------------|--------------------------|
--------------------6-----|--------------------------|
-----------------7-----7--|--------7-----------7-----|
--------0-----0-----------|-----0-----0-----0-----0--|
-----3-----6--------------|--5-----------5-----------|
--3-----------------------|--------------------------|


  E  E  E  E  E  E  E  E     E  E  E  E  E  E  E  E   
--------------------------|-----------5--L-----6-----|
--------------------6-----|--------------------------|
-----------------7-----7--|--------0-----0--L-----0--|
--------0-----0-----------|-----0--------------------|
-----3-----6--------------|--------------------------|
--3-----------------------|--5-----------------------|


  E  E  E  E  E  E  E  E     E  E  E  E  S  S  S S E  E   
--------------------------|------------------------------|
--------------------6-----|------------------------------|
-----------------7-----7--|--------7---------------7-----|
--------0-----0-----------|-----0-----0--------0-L----0--|
-----3-----6--------------|--5-----------5h-6p-5---------|
--3-----------------------|------------------------------|


  E  E  E  E  E  E  E  E     E  E  E  E  E  E  E  E               
--------------------------|--------------------------|-----|-----|
--------------------------|--------------------------|-----|-----|
--------3-----------3-----|--------3-----------2-----|-----|-----|
-----0-----0-----0-----0--|-----0-----0-----0-----0--|-----|-----|
--1-----------1-----------|--0-----------0-----------|-----|-----|
--------------------------|--------------------------|-----|-----|


  E  E  E  E  E  E  E  E     E  E  E  E  E  E  E  E               
--------------------------|--------------------------|-----|-----|
--------------------------|--------------------------|-----|-----|
--------3-----------3-----|--------2-----0--------0--|-----|-----|
-----0-----0-----0-----0--|-----0-----0--------3-----|-----|-----|
--1-----------1-----------|--0--------------5--------|-----|-----|
--------------------------|--------------------------|-----|-----|


  E  E  E  E  E  E  E  E     E  E  E  E  E  E  E  E   
--------------------------|-----------5--L-----6-----|
--------------------6-----|--------------------------|
-----------------7-----7--|--------0-----0--L-----0--|
--------0-----0-----------|-----0--------------------|
-----3-----6--------------|--------------------------|
--3-----------------------|--5-----------------------|


  E  E  E  E  E  E  E  E     E  E  E  E  E  E  E  E   
--------------------------|--------------------------|
--------------------6-----|--------------------------|
-----------------7-----7--|--------7-----------7-----|
--------0-----0-----------|-----0-----0-----0-----0--|
-----3-----6--------------|--5-----------5-----------|
--3-----------------------|--------------------------|


  E  E  E  E  E  E  E  E     E  E  E  E  E  E  E  E   
--------------------------|-----------5--L-----6-----|
--------------------6-----|--------------------------|
-----------------7-----7--|--------0-----0--------0--|
--------0-----0-----------|-----0-----------0--------|
-----3-----6--------------|--------------------------|
--3-----------------------|--5-----------------------|


  E  E  E  E  E  E  E  E     E  E  E  E  E  E  E  E   
--------------------------|--------------------------|
--------------------6-----|--------------------------|
-----------------7-----7--|--------7-----------7-----|
--------0-----0-----------|-----0-----0-----0-----0--|
-----3-----6--------------|--5-----------5-----------|
--3-----------------------|--------------------------|


  E  E  E  E  S  S  S S E  E     E  E  E  E  E  E  E  E   
------------------------------|--------------------------|
------------------------------|--------------------------|
--------7---------------7-----|--------7-----------7-----|
-----0-----0--------0-L----0--|-----0-----0-----0-----0--|
--5-----------5h-6p-5---------|--5-----------5-----------|
------------------------------|--------------------------|


  E  E  E  E  S  S  S S E  E     E  E  E  E  E  E  E  E   
------------------------------|--------------------------|
------------------------------|--------------------------|
--------7---------------7-----|--------0-----------0-----|
-----0-----0--------0-L----0--|-----5-----5-----5-----5--|
--5-----------5h-6p-5---------|--6-----------6-----------|
------------------------------|--------------------------|


  E  E  E  E  E  E  E  E     E  E  E  E  E  E  E  E   
--------------------------|--------------------------|
--------------------------|--------------------------|
--------3-----------3-----|--------7-----------7-----|
-----7-----7-----7-----7--|-----8-----8-----8-----8--|
--0-----------0-----------|--------------------------|
--------------------------|--8-----------8-----------|


  E  E  E  E  E  E   E  E     E  E  E  E  E  E  E  E   
---------------------------|--------------------------|
---------------------------|--------------------------|
--------7-----5-----10-----|--------0-----------0-----|
-----0-----0-----0------0--|-----5-----5-----5-----5--|
---------------------------|--6-----------6-----------|
--0------------------------|--------------------------|


  E  E  E  E  E  E  E  E     E  E  E  E  E  E  E  E   
--------------------------|--------------------------|
--------------------------|--------------------------|
--------3-----------3-----|--------7-----------7-----|
-----7-----7-----7-----7--|-----8-----8-----8-----8--|
--0-----------0-----------|--------------------------|
--------------------------|--8-----------8-----------|


  E  E  E  E  E  E  E  E     E  E  E  E  E  E  E  E   
--------------------------|--------------------------|
--------------------------|--------------------------|
--------7-----5-----3-----|--------0-----------0-----|
-----0-----0-----0-----0--|-----5-----5-----5-----5--|
--------------------------|--6-----------6-----------|
--0-----------------------|--------------------------|


  E  E  E  E  E  E  E  E     E  E  E  E  E  E  E  E   
--------------------------|--------------------------|
--------------------------|--------------6-----------|
--------3-----------3-----|--------7-----------7-----|
-----7-----7-----7-----7--|-----8-----8-----8-----8--|
--0-----------0-----------|--------------------------|
--------------------------|--8-----------------------|


  E  E  E  E  E  E   E  E     E  E  E  E  E  E  E  E   
---------------------------|--------------------------|
---------------------------|--------------------------|
--------7-----5-----10-----|--------0-----------0-----|
-----0-----0-----0------0--|-----5-----5-----5-----5--|
---------------------------|--6-----------6-----------|
--0------------------------|--------------------------|


  E  E  E  E  E  E  E  E     E  E  E  E  E  E  E  E   
--------------------------|--------------------------|
--------------------------|--------------------------|
--------3-----------3-----|--------7-----------7-----|
-----7-----7-----7-----7--|-----8-----8-----8-----8--|
--0-----------0-----------|--------------------------|
--------------------------|--8-----------8-----------|


  E  E  E  E  E  E  E  E                                                   
--------------------------|-----|-----|-----|-----|-----|-----|-----|-----|
--------------------------|-----|-----|-----|-----|-----|-----|-----|-----|
--------7-----5-----3-----|-----|-----|-----|-----|-----|-----|-----|-----|
-----0-----0-----0-----0--|-----|-----|-----|-----|-----|-----|-----|-----|
--------------------------|-----|-----|-----|-----|-----|-----|-----|-----|
--0-----------------------|-----|-----|-----|-----|-----|-----|-----|-----|


-----|-----|-----|-----|-----|-----|-----|-----|-----|-----|-----|-----|-----|
-----|-----|-----|-----|-----|-----|-----|-----|-----|-----|-----|-----|-----|
-----|-----|-----|-----|-----|-----|-----|-----|-----|-----|-----|-----|-----|
-----|-----|-----|-----|-----|-----|-----|-----|-----|-----|-----|-----|-----|
-----|-----|-----|-----|-----|-----|-----|-----|-----|-----|-----|-----|-----|
-----|-----|-----|-----|-----|-----|-----|-----|-----|-----|-----|-----|-----|


-----|-----|-----|-----|-----|-----|-----|-----|-----|-----|-----|-----|-----|
-----|-----|-----|-----|-----|-----|-----|-----|-----|-----|-----|-----|-----|
-----|-----|-----|-----|-----|-----|-----|-----|-----|-----|-----|-----|-----|
-----|-----|-----|-----|-----|-----|-----|-----|-----|-----|-----|-----|-----|
-----|-----|-----|-----|-----|-----|-----|-----|-----|-----|-----|-----|-----|
-----|-----|-----|-----|-----|-----|-----|-----|-----|-----|-----|-----|-----|


-----|-----|-----|-----|-----|-----|-----||
-----|-----|-----|-----|-----|-----|-----||
-----|-----|-----|-----|-----|-----|-----||
-----|-----|-----|-----|-----|-----|-----||
-----|-----|-----|-----|-----|-----|-----||
-----|-----|-----|-----|-----|-----|-----||


Guitar 2 - Electric part


E||-------|-------|-------|-------|-------|-------|-------|-------|-------|
B||-------|-------|-------|-------|-------|-------|-------|-------|-------|
G||-------|-------|-------|-------|-------|-------|-------|-------|-------|
D||-------|-------|-------|-------|-------|-------|-------|-------|-------|
A||-------|-------|-------|-------|-------|-------|-------|-------|-------|
D||-------|-------|-------|-------|-------|-------|-------|-------|-------|


-------|-------|-------|-------|-------|-------|-------|-------|-------|
-------|-------|-------|-------|-------|-------|-------|-------|-------|
-------|-------|-------|-------|-------|-------|-------|-------|-------|
-------|-------|-------|-------|-------|-------|-------|-------|-------|
-------|-------|-------|-------|-------|-------|-------|-------|-------|
-------|-------|-------|-------|-------|-------|-------|-------|-------|


  E  E  E  E  H           E  E  E  E  H                         
-----------------------|-----------------------|-------|-------|
-----------------------|-----------------------|-------|-------|
-----------------------|-----------------------|-------|-------|
--3--3--3--0--L--------|--3--3--3--0--L--------|-------|-------|
--3--3--3--0--L--------|--3--3--3--0--L--------|-------|-------|
--3--3--3--0--L--------|--3--3--3--0--L--------|-------|-------|


  E  E  E  E  H           E  E  E  E  H                                         
-----------------------|-----------------------|-------|-------|-------|-------|
-----------------------|-----------------------|-------|-------|-------|-------|
-----------------------|-----------------------|-------|-------|-------|-------|
--3--3--3--0--L--------|--3--3--3--0--L--------|-------|-------|-------|-------|
--3--3--3--0--L--------|--3--3--3--0--L--------|-------|-------|-------|-------|
--3--3--3--0--L--------|--3--3--3--0--L--------|-------|-------|-------|-------|


-------|-------|-------|-------|-------|-------|-------|-------|-------|-------|
-------|-------|-------|-------|-------|-------|-------|-------|-------|-------|
-------|-------|-------|-------|-------|-------|-------|-------|-------|-------|
-------|-------|-------|-------|-------|-------|-------|-------|-------|-------|
-------|-------|-------|-------|-------|-------|-------|-------|-------|-------|
-------|-------|-------|-------|-------|-------|-------|-------|-------|-------|


-------|-------|-------|-------|-------|-------|-------|-------|-------|-------|
-------|-------|-------|-------|-------|-------|-------|-------|-------|-------|
-------|-------|-------|-------|-------|-------|-------|-------|-------|-------|
-------|-------|-------|-------|-------|-------|-------|-------|-------|-------|
-------|-------|-------|-------|-------|-------|-------|-------|-------|-------|
-------|-------|-------|-------|-------|-------|-------|-------|-------|-------|



                          E  E  E  E  E  E  E  E     E  E  E  E  E  E  E  E   
-------|-------|-------|--------------------------|--------------------------|
-------|-------|-------|--------------------------|--------------------------|
-------|-------|-------|--------------------------|--------------------------|
-------|-------|-------|--8--8--8--8--8--7--5--8--|--7--0--0--0--0--0--0--0--|
-------|-------|-------|--8--8--8--8--8--7--5--8--|--7--0--0--0--0--0--0--0--|
-------|-------|-------|--8--8--8--8--8--7--5--8--|--7--0--0--0--0--0--0--0--|


  E  E  E  E  E  E  E  E     E  E  E  E  E  E  E  E   
--------------------------|--------------------------|
--------------------------|--------------------------|
--------------------------|--------------------------|
--8--8--8--8--8--7--5--8--|--7--0--0--0--0--0--0--0--|
--8--8--8--8--8--7--5--8--|--7--0--0--0--0--0--0--0--|
--8--8--8--8--8--7--5--8--|--7--0--0--0--0--0--0--0--|


  E  E  E  E  E  E  E  E     E  E  E  E  E  E  E  E   
--------------------------|--------------------------|
--------------------------|--------------------------|
--------------------------|--------------------------|
--8--8--8--8--8--7--5--8--|--7--0--0--0--0--0--0--0--|
--8--8--8--8--8--7--5--8--|--7--0--0--0--0--0--0--0--|
--8--8--8--8--8--7--5--8--|--7--0--0--0--0--0--0--0--|


  E  E  E  E  E  E  E  E     E  E  E  E  E  E  E  E   
--------------------------|--------------------------|
--------------------------|--------------------------|
--------------------------|--------------------------|
--8--8--8--8--8--7--5--8--|--7--0--0--0--0--0--0--0--|
--8--8--8--8--8--7--5--8--|--7--0--0--0--0--0--0--0--|
--8--8--8--8--8--7--5--8--|--7--0--0--0--0--0--0--0--|


  E  E  E  E  E  E  E  E     E  E  E  E  E  E  E  E   
--------------------------|--------------------------|
--------------------------|--------------------------|
--------------------------|--------------------------|
--8--8--8--8--8--7--5--8--|--7--0--0--0--0--0--0--0--|
--8--8--8--8--8--7--5--8--|--7--0--0--0--0--0--0--0--|
--8--8--8--8--8--7--5--8--|--7--0--0--0--0--0--0--0--|


  E  E  E  E  E  E  E  E     E  E  E  E  E  E  E  E   
--------------------------|--------------------------|
--------------------------|--------------------------|
--------------------------|--------------------------|
--8--8--8--8--8--7--5--8--|--7--0--0--0--0--0--0--0--|
--8--8--8--8--8--7--5--8--|--7--0--0--0--0--0--0--0--|
--8--8--8--8--8--7--5--8--|--7--0--0--0--0--0--0--0--|


  E  E  E  E  E  E  E  E     E  E  E  E  E  E  E  E   
--------------------------|--------------------------|
--------------------------|--------------------------|
--------------------------|--------------------------|
--8--8--8--8--8--7--5--8--|--7--0--0--0--0--0--0--0--|
--8--8--8--8--8--7--5--8--|--7--0--0--0--0--0--0--0--|
--8--8--8--8--8--7--5--8--|--7--0--0--0--0--0--0--0--|


  E  E  E  E  E  E  E  E     E  E  E  E  E  E  E  E   
--------------------------|--------------------------|
--------------------------|--------------------------|
--------------------------|--------------------------|
--8--8--8--8--8--7--5--8--|--7--0--0--0--0--0--0--0--|
--8--8--8--8--8--7--5--8--|--7--0--0--0--0--0--0--0--|
--8--8--8--8--8--7--5--8--|--7--0--0--0--0--0--0--0--|


  E  E  E  E  E  E  E  E     E  E  E  E  E  E  E  E   
--------------------------|--------------------------|
--------------------------|--------------------------|
--------------------------|--------------------------|
--8--8--8--8--8--7--5--8--|--7--0--0--0--0--0--0--0--|
--8--8--8--8--8--7--5--8--|--7--0--0--0--0--0--0--0--|
--8--8--8--8--8--7--5--8--|--7--0--0--0--0--0--0--0--|


  E  E  E  E  E  E  E  E     E  E  E  E  E  E  E  E   
--------------------------|--------------------------|
--------------------------|--------------------------|
--------------------------|--------------------------|
--8--8--8--8--8--7--5--8--|--7--0--0--0--0--0--0--0--|
--8--8--8--8--8--7--5--8--|--7--0--0--0--0--0--0--0--|
--8--8--8--8--8--7--5--8--|--7--0--0--0--0--0--0--0--|


  E  E  E  E  E  E  E  E     E  E  E  E  E  E  E  E   
--------------------------|--------------------------|
--------------------------|--------------------------|
--------------------------|--------------------------|
--8--8--8--8--8--7--5--8--|--7--0--0--0--0--0--0--0--|
--8--8--8--8--8--7--5--8--|--7--0--0--0--0--0--0--0--|
--8--8--8--8--8--7--5--8--|--7--0--0--0--0--0--0--0--|


  E  E  E  E  E  E  E  E     E  E  E  E  E  E  E  E   
--------------------------|--------------------------|
--------------------------|--------------------------|
--------------------------|--------------------------|
--8--8--8--8--8--7--5--8--|--7--0--0--0--0--0--0--0--|
--8--8--8--8--8--7--5--8--|--7--0--0--0--0--0--0--0--|
--8--8--8--8--8--7--5--8--|--7--0--0--0--0--0--0--0--|


  E  E  E  E  E  E  E  E     E  E  E  E  E  E  E  E   
--------------------------|--------------------------|
--------------------------|--------------------------|
--------------------------|--------------------------|
--8--8--8--8--8--7--5--8--|--7--0--0--0--0--0--0--0--|
--8--8--8--8--8--7--5--8--|--7--0--0--0--0--0--0--0--|
--8--8--8--8--8--7--5--8--|--7--0--0--0--0--0--0--0--|


  E  E  E  E  E  E  E  E     E  E  E  E  E  E  E  E   
--------------------------|--------------------------|
--------------------------|--------------------------|
--------------------------|--------------------------|
--8--8--8--8--8--7--5--8--|--7--0--0--0--0--0--0--0--|
--8--8--8--8--8--7--5--8--|--7--0--0--0--0--0--0--0--|
--8--8--8--8--8--7--5--8--|--7--0--0--0--0--0--0--0--|


  E  E  E  E  E  E  E  E     E  E  E  E  E  E  E  E   
--------------------------|--------------------------|
--------------------------|--------------------------|
--------------------------|--------------------------|
--8--8--8--8--8--7--5--8--|--7--0--0--0--0--0--0--0--|
--8--8--8--8--8--7--5--8--|--7--0--0--0--0--0--0--0--|
--8--8--8--8--8--7--5--8--|--7--0--0--0--0--0--0--0--|


  E  E  E  E  E  E  E  E     E  E  E  E  E  E  E  E   
--------------------------|--------------------------|
--------------------------|--------------------------|
--------------------------|--------------------------|
--8--8--8--8--8--7--5--8--|--7--0--0--0--0--0--0--0--|
--8--8--8--8--8--7--5--8--|--7--0--0--0--0--0--0--0--|
--8--8--8--8--8--7--5--8--|--7--0--0--0--0--0--0--0--|


  E  E  E  E  E  E  E  E     E  E  E  E  E  E  E  E   
--------------------------|--------------------------|
--------------------------|--------------------------|
--------------------------|--------------------------|
--8--8--8--8--8--7--5--8--|--7--0--0--0--0--0--0--0--|
--8--8--8--8--8--7--5--8--|--7--0--0--0--0--0--0--0--|
--8--8--8--8--8--7--5--8--|--7--0--0--0--0--0--0--0--|


  E  E  E  E  E  E  E  E     E  E  E  E  E  E  E  E   
--------------------------|--------------------------|
--------------------------|--------------------------|
--------------------------|--------------------------|
--8--8--8--8--8--7--5--8--|--7--0--0--0--0--0--0--0--|
--8--8--8--8--8--7--5--8--|--7--0--0--0--0--0--0--0--|
--8--8--8--8--8--7--5--8--|--7--0--0--0--0--0--0--0--|


  E  E  E  E  E  E  E  E     E  E  E  E  E  E  E  E                      
--------------------------|--------------------------|-----|-----|-----||
--------------------------|--------------------------|-----|-----|-----||
--------------------------|--------------------------|-----|-----|-----||
--8--8--8--8--8--7--5--8--|--7--0--0--0--0--0--0--0--|-----|-----|-----||
--8--8--8--8--8--7--5--8--|--7--0--0--0--0--0--0--0--|-----|-----|-----||
--8--8--8--8--8--7--5--8--|--7--0--0--0--0--0--0--0--|-----|-----|-----||







Duration Legend
---------------
W - whole
H - half
Q - quarter
E - 8th
S - 16th
T - 32nd
X - 64th


Tablature Legend
----------------
L - tied note
NH - natural harmonic
AH - artificial harmonic
h - hammer on
p - pull off
b - bend
/ -  slide into from below or out of upwards
\ -  slide into from above or out of downwards
< - fade in
Добавлено: 30.06.2012
Другие материалы по этой песне:

Страница создана 26.02.2012
http://primanota.ru/dub-trio/respite-chords.htm
Привет, Гость.
Предлагаем пройти революционный курс по гитаре.
Подарок от PrimaNota.Ru, забирай!