PrimaNota.ru - самый крупный в мире бесплатный архив песенных текстов, аккордов, табулатур и нот


Dub Trio - Angle Of Acceptance - таба, видео

Регистрация Запомнить меня
Войти через:  Facebook Google Twitter Vk Yandex Mail.ru

Dub Trio - Angle Of Acceptance - таба, видео

Печатать
Просмотров: 103
This tab just gives you an idea of the rythm of this song
You have to listen to the song to play exactly like DT




Guitar 
     S S S S S S S S S S S S S S S S    S S S H        S S S S S  
E||----------------------------------|---------------------------|
B||----------------------------------|---------------------------|
G||----------------------------------|---------------------------|
D||----------------------------------|---------------------------|
A||----------------------------------|---------------------------|
D||--0-0-0-0---0-0---0-0-0-0-0-0---0-|--0-0-0----------0-0---0-0-|


  E  S S S S S S S S S Q    S    S S. S S. S S S E  E  E  E   
------------------------------|------------------------------|
------------------------------|------------------------------|
------------------------------|------------------3--3--3--3--|
------------------------------|------------------1--1--1--1--|
------------------------------|------------------1--1--1--1--|
-----0-0-0-0-0-0---0-0--------|--0-0--0-0----0-0-1--1--1--1--|


  E  E  S S H        S S    S S S E  S S S S S S S S S S S  
-------------------------|---------------------------------|
-------------------------|---------------------------------|
--3--L-------------------|---------------------------------|
--1--L-------------------|---------------------------------|
--1--L-------------------|---------------------------------|
--1--L--0-0----------0-0-|----0-0----0-0-0-0-0-0-0-0-0-0-0-|


                                                           NH  
  S H        S S S S S S S    S S S S S S S S S S S S E    E   
---------------------------|----------------------------------|
---------------------------|----------------------------------|
---------------------------|-----------------------------<>5--|
---------------------------|-----------------------------<>5--|
---------------------------|----------------------------------|
--0----------0-0-0-0---0-0-|----0-0-0-0-0-0---0-0-0-0---------|


  E  E  S S S S S E  S S S S S    S S S S Q    S S S. S S. S S  
-------------------------------|-------------------------------|
-------------------------------|-------------------------------|
--L----------------------------|-------------------------------|
--L----------------------------|-------------------------------|
-------------------------------|-------------------------------|
--------0-0---0-0----0-0-0-0-0-|--0---0-0--------0-0--0-0----0-|


                                        NH                       
  S S S S S S S S S E  E  S S S    E    S Q    S S S S S E  S S  
--------------------------------|-------------------------------|
--------------------------------|-------------------------------|
----3---3-L-3-L-3-L-3--L--------|-----<>7-----------------------|
----1-L-1-L-1-L-1-L-1--L--------|-----<>7-----------------------|
----1-L-1-L-1-L-1-L-1--L--------|-------------------------------|
--0-1-L-1-L-1-L-1-L-1--L--0-0---|--------------0-0---0-0----0-0-|

                               the drum begins 
  S S S S S S S S S S Q    E     S S S S S S S S S S S S S S S S  
------------------------------|----------------------------------|
------------------------------|----------------------------------|
------------------------------|----------------------------------|
------------------------------|----------------------------------|
------------------------------|----------------------------------|
--0-0-0-0-0-0-0-0-0-0---------|--0-0-0-0---0-0---0-0-0-0-0-0---0-|


  S S S H        S S S S S    E  S S S S S S S S S Q    S  
---------------------------|------------------------------|
---------------------------|------------------------------|
---------------------------|------------------------------|
---------------------------|------------------------------|
---------------------------|------------------------------|
--0-0-0----------0-0---0-0-|-----0-0-0-0-0-0---0-0--------|


  S S. S S. S S S S S S S E   Q        Q    H        Q     
------------------------------------|---------------------|
------------------------------------|---------------------|
------------------------------------|---------------------|
------------------1-1-1-1-Ls--7p----|--0----0--------L----|
------------------1-1-1-1-Ls--7p----|--0----0--------L----|
--0-0--0-0----0-0-1-1-1-1-Ls--7p----|--0----0--------L----|

                                                           bass + drums
  S S S S S E  S S S S S S S S S    S S S S H        Q                     
---------------------------------|------------------------|-------|-------|
---------------------------------|------------------------|-------|-------|
---------------------------------|------------------------|-------|-------|
---------------------------------|------------------------|-------|-------|
---------------------------------|------------------------|-------|-------|
--0-0---0-0----0-0-0-0-0-0-0-0-0-|--0-0-0-----------------|-------|-------|


-------|-------|-------|-------|-------|-------|-------|-------|-------|
-------|-------|-------|-------|-------|-------|-------|-------|-------|
-------|-------|-------|-------|-------|-------|-------|-------|-------|
-------|-------|-------|-------|-------|-------|-------|-------|-------|
-------|-------|-------|-------|-------|-------|-------|-------|-------|
-------|-------|-------|-------|-------|-------|-------|-------|-------|


  S S S S S S S S S S S S S S S S    S S S H        S S S S S  
----------------------------------|---------------------------|
----------------------------------|---------------------------|
----------------------------------|---------------------------|
----------------------------------|---------------------------|
----------------------------------|---------------------------|
--0-0-0-0---0-0---0-0-0-0-0-0---0-|--0-0-0----------0-0---0-0-|


  E  S S S S S S S S S Q    S    S S. S S. S S S S S S S E   Q      
------------------------------|------------------------------------|
------------------------------|------------------------------------|
------------------------------|------------------------------------|
------------------------------|------------------1-1-1-1-Ls--7p----|
------------------------------|------------------1-1-1-1-Ls--7p----|
-----0-0-0-0-0-0---0-0--------|--0-0--0-0----0-0-1-1-1-1-Ls--7p----|


  Q    H        Q       S S S S S E  S S S S S S S S S  
---------------------|---------------------------------|
---------------------|---------------------------------|
---------------------|---------------------------------|
--0----0--------L----|---------------------------------|
--0----0--------L----|---------------------------------|
--0----0--------L----|--0-0---0-0----0-0-0-0-0-0-0-0-0-|


  S S S S H        Q      
------------------------||
------------------------||
------------------------||
------------------------||
------------------------||
--0-0-0-----------------||


Добавлено: 06.05.2012
Другие материалы по этой песне:

Страница создана 16.04.2012
http://primanota.ru/dub-trio/angle-of-acceptance-chords.htm
Привет, Гость.
Предлагаем пройти революционный курс по гитаре.
Подарок от PrimaNota.Ru, забирай!