PrimaNota.ru - самый крупный в мире бесплатный архив песенных текстов, аккордов, табулатур и нот


Dryve - Television - таба, видео

Регистрация Запомнить меня
Войти через:  Facebook Google Twitter Vk Yandex Mail.ru

Dryve - Television - таба, видео

Печатать
Просмотров: 59
		                                /       Television      \
                            /          Dryve          \
                           /        TTTL Vol. III      \
                           \ ©1997 Sarabellum Records  /
                            \  Tabbed By Matt Atlas   /
                             \   MrGuitarz@aol.com   /


Intro:
E|--------------------------------------------
B|--0-3-5-6--6-0-0-5-6--6-0-3-5-6--6-0-0-5-3--
G|--------------------------------------------


E|----------------------------------------------------
B|--0-3-5-6--6-0-0-5-6--6-0-3-5-6--6-0-0-3-3-0-0-0-0--
G|--------------------------------------------------
E|--------------------------------------------------
B|--0-0-3-5s6--6-0-0-5-5s6--6-0-0-3-5s6--6-0-0-5-3--
G|--------------------------------------------------


E|--------------------------------------------------
B|--0-0-3-5s6--6-0-0-5-5s6--6-0-0-3-5s6--6-0-0-5-3--
G|--------------------------------------------------


Verse 1:
                     Bb5                             C5 C5
She likes television,    She likes everything but me
                          D5 D5 C5 D5 C5 D5
Aint getting no reception
                           Bb5                             C5 C5
She likes making pictures      for the entire world to see
                          D5 D5 C5 D5 C5 D5
I guess I'm the exception
                C5           Bb5
She likes to dance,  But I can't


Chorus:
SOMEBODY PLEASE HELP HERE!!!!


Interlude:
First two lines of intro


As in all the songs I tab out, this may be completely off, but it'll give you
something to work with, and please update it as you see fit.  I figure
something is better than nothing, so enjoy this!


-matt     
Добавлено: 07.07.2013
Другие материалы по этой песне:
  • Аккорды и текст

Страница создана 07.07.2013
http://primanota.ru/dryve/television-chords.htm
Привет, Гость.
Предлагаем пройти революционный курс по гитаре.
Подарок от PrimaNota.Ru, забирай!