PrimaNota.ru - самый крупный в мире бесплатный архив песенных текстов, аккордов, табулатур и нот


Dryve - Rain - таба, видео

Регистрация Запомнить меня
Войти через:  Facebook Google Twitter Vk Yandex Mail.ru

Dryve - Rain - таба, видео

Печатать
Просмотров: 77
Уроки эстрадного вокала в Санкт-Петербурге
		   Rain    
Dryve     
Thrifty Mr. Kickstar   
copyright 1997 SaraBellum Records   

tabbed by:     Joshua Craig    
                jcraig@redriverok.com

Hopefully  this will help those of you who needed the 
finger picking part.

tune  guitar down 1/2 step (as per the entire album)

    C      Gsus     Am       F?
e--0--    --3--   --0--   --3--
b--1--    --3--   --1--   --1--
g--0--    --0--   --2--   --2--
d--2--    --0--   --2--   --3--
a--3--    --2--   --0--   -----
E-----    --3--   -----   -----

    C              Gsus         Am           F?
e----------0-----------3-----------0-----------3-------------
b------------1-----------3-----------1-------1---1-----------
g--------0-----0-----------0-----2-----2---2------2----------
d-----2--------------0---------2---------3-------------------
a--3---------------2---------0-------------------------------
E----------------3-------------------------------------------

REPEAT  ABOVE AS NEEDED

then there's the bridge:
(listen to the CD to get the  exact rhythm amd # of times to play)

Am  G  Am  G   Am  G  F?

It then returns to the finger picking  section.

Have a wonderful day.

Joshua R. Craig      
Добавлено: 23.07.2013
Вам также может быть интересно:
Другие материалы по этой песне:
  • Аккорды и текст

Страница создана 23.07.2013
http://primanota.ru/dryve/rain-chords.htm
Привет, Гость.
Предлагаем пройти революционный курс по гитаре.
Подарок от PrimaNota.Ru, забирай!