PrimaNota.ru - самый крупный в мире бесплатный архив песенных текстов, аккордов, табулатур и нот


Dry Kill Logic - No Reason - текст песни, таба, видео

Регистрация Запомнить меня
Войти через:  Facebook Google Twitter Vk Yandex Mail.ru

Dry Kill Logic - No Reason - текст песни, таба, видео

Печатать
Просмотров: 228
Intro/verse
e---------------------------------------------------------|
b------0---------0----------------0-----------------------|
g-----0---0-----0-0------0--------------------------------|
d----5------5--5---4-4--4--4-----4-4-----4----------------|
a---3---------3-----3--2-----2--2---2-3/5-----------------|
d---------------------2--------2--------------------------|

Pre chorus                       P.M.
e---------------------------------------------------------|
b------0---------0-----------0----------------------------|
g-----0---0-----0-0------0---0----------------------------|
d----5------5--5---4-4--4--4-4-4-4-4-4--------------------|
a---3---------3-----3--2-----2-2-2-2-2--------------------|
d---------------------2-----------------------------------|

Chorus
e----------------------------------------------------------|
b----------------------------------------------------------|
g----------------------------------------------------------|
d---4-4---4-4---4-4---4-4--/5-5-0--4-4---4-4---4-4-4-------|
a---5-5---2-2---5-5---2-2--/5-5-0--5-5---2-2---5-5-5---3/5-|
d---0-0---2-2---0-0---2-2--/5-5-0--0-0---2-2---0-0-0-------|
Добавлено: 27.05.2012
Другие материалы по этой песне:
  • Аккорды и текст

Страница создана 28.03.2012
http://primanota.ru/dry-kill-logic/no-reason-chords.htm
Привет, Гость.
Предлагаем пройти революционный курс по гитаре.
Подарок от PrimaNota.Ru, забирай!