PrimaNota.ru - самый крупный в мире бесплатный архив песенных текстов, аккордов, табулатур и нот


Dry Kill Logic - Neither Here Nor Missed - текст песни, таба, видео

Регистрация Запомнить меня
Войти через:  Facebook Google Twitter Vk Yandex Mail.ru

Dry Kill Logic - Neither Here Nor Missed - текст песни, таба, видео

Печатать
Просмотров: 147
So I basically found this tab and decided to put it here,
because I'm sure quite a few people might stumble on to this
 site before any other. So the real credit for this song goes
to Dave Bordon (dbordon@optusnet.com.au), and here is a
link to his original work

http://www.ttabs.com/tabs.php?id=199639



- Slide Down
/ - Slide Up
. - Palm Mute
h - hammer on
p - pull off

Bass Intro Tabbed for Guitar

D|-----------------------------------|
A|-----------------------------------|
F|-----------------------------------|
C|-----------------------------------|
G|----0-0h1p0----0-1---0-0h1p0---3-1-|
C|-0----------0------0---------0-----|



Intro (Guitar 1) (Clean) (Flanger)

D|-----------------------------------------------------------------------------|
A|-6--6--6-6--6--6--65--5--5-5--5--5--5/6--6--6-6--6--6--6/8--8--8-10--8--8----|
F|-7--7--7-7--7--7--7-7--7--7-7--7--7--7-7--7--7-7--7--7--7-7--7--7--7--7--7---|
C|-0--0--0-0--0--0--0-0--0--0-0--0--0--0-0--0--0-0--0--0--0-0--0--0--0--0--0---|
G|-----------------------------------------------------------------------------|
C|-----------------------------------------------------------------------------|

D|----------------------------------------------------------------------------|
A|-6--6--6-6--6--6--65--5--5-5--5--5--5/6--6--6-6--6--6--6/8--8--8-8--8--8----|
F|-7--7--7-7--7--7--7-7--7--7-7--7--7--7-7--7--7-7--7--7--7-7--7--7-7--7--7---|
C|-0--0--0-0--0--0--0-0--0--0-0--0--0--0-0--0--0-0--0--0--0-0--0--0-0--0--0---|
G|----------------------------------------------------------------------------|
C|----------------------------------------------------------------------------|



Intro 2 (Guitar 1) (Clean) (Flanger)

D|-----------------------------------------------------------|
A|-13-10-10-10-10-10-10-10-10-10-10-10-10-8--8--8-8--8-8-8-8-|
F|-----------------------------------------------------------|
C|-----------------------------------------------------------|
G|-----------------------------------------------------------|
C|-----------------------------------------------------------|

Guitar 2 (Distorted)
D|--------------------------------------------|
A|--------------------------------------------|
F|--------------------------------------------|
C|-1210-1010----------1010-10-1010------------|
G|-108--8-8--8-8-8-8--8-8--8--8-8--8-8-8-8----|
C|-108--8-8--8-8-8-8--8-8--8--8-8--8-8-8-8----|
             . . . .               . . . .

Guitar 1
D|---------------------------|
A|-5h6p5-5-5h6p5---3---3-3-3-|
F|---------------5---5-------|
C|---------------------------|
G|---------------------------|
C|---------------------------|

Guitar 2 (Distorted)
D|---------------------------------------|
A|---------------------------------------|
F|---------------------------------------|
C|---------------------------------------|
G|-0-0--0--0-0--3--0--0-0--0--0-0--3--0--|
C|-0-0--0--0-0--3--0--0-0--0--0-0--3--0--|

(Guitar 1) (Clean) (Flanger)

D|-----------------------------------------------------------------------|
A|-10-10-10-10-10-10-10-10-10-10-10-10-13-10-10-10-10-10-10-10-10-10-8-8-|
F|-----------------------------------------------------------------------|
C|-----------------------------------------------------------------------|
G|-----------------------------------------------------------------------|
C|-----------------------------------------------------------------------|

Guitar 2 (Distorted)
D|--------------------------------------------|
A|--------------------------------------------|
F|--------------------------------------------|
C|-1210-1010----------1010-10-1010------------|
G|-108--8-8--8-8-8-8--8-8--8--8-8--8-8-8-8----|
C|-108--8-8--8-8-8-8--8-8--8--8-8--8-8-8-8----|
             . . . .               . . . .

Guitar 1 (Clean) (Flanger)
D|---------------------------|
A|-5h6p5-5-5h6p5---3---3-3-3-|
F|---------------5---5-------|
C|---------------------------|
G|---------------------------|
C|---------------------------|

Guitar 2 (Distoreted)

D|---------------------------------------|
A|---------------------------------------|
F|---------------------------------------|
C|---------------------------------------|
G|-0-0--0--0-0--3--0--0-0--0--0-0--3--0--|
C|-0-0--0--0-0--3--0--0-0--0--0-0--3--0--|



Verse

Guitar 1 (Clean) (Flanger)

D|-------------------|R|-------------------------|
A|-6p5--5--5-5--5--5-|E|-8-8-8-8-8-8-5-5-5-5-5-5-|
F|-5-5--5--5-5--5--5-|P|-5-5-5-5-5-5-5-5-5-5-5-5-|
C|-7-7--7--7-7--7--7-|E|-7-7-7-7-7-7-7-7-7-7-7-7-|
G|-------------------|A|-------------------------|
C|-------------------|T|-------------------------|
                      7
                      X
Guitar 2 (Distorted)

D|--------------------|--------------------|
A|--------------------|--------------------|
F|-10-----------------|--------------------|
C|-10-----------------|--------------------|
G|-8------------------|--------------------|
C|-8------------------|--------------------|



Guitar 1 (Clean) (Flanger)

D|-------------------|R|-------------------------|
A|-6p5--5--5-5--5--5-|E|-8-8-8-8-8-8-5-5-5-5-5-5-|
F|-5-5--5--5-5--5--5-|P|-5-5-5-5-5-5-5-5-5-5-5-5-|
C|-7-7--7--7-7--7--7-|E|-7-7-7-7-7-7-7-7-7-7-7-7-|
G|-------------------|A|-------------------------|
C|-------------------|T|-------------------------|
                      7
                      X

Guitar 2 (Distorted)

D|--------------------|--------------------|
A|--------------------|--------------------|
F|--------------------|--------------------|
C|--------------------|--------------------|
G|--------------------|---------------3--1-|
C|--------------------|---------------3--1-|



Chorus 1

Guitar 2 (distorted)

D|---------------------------------------------------------------------------------------|
A|---------------------------------------------------------------------------------------|
F|-----------8-8-8-8-8-7-----------8-8-8-8-8-7-----------8-8-8-8-8-7---------------------|
C|-----------X-X-X-X-X-X-----------X-X-X-X-X-X-----------X-X-X-X-X-X---------------------|
G|-0-0--0--0-6-6-6-6-6-5-1-0--0--0-6-6-6-6-6-5-1-0--0--0-6-6-6-6-6-5-1-0--0--0-1-0--0--0-|
C|-0-0--0--0-------------1-0--0--0-------------1-0--0--0-------------1-0--0--0-1-0--0--0-|

Guitar 2 (distorted)

D|------------------------------------------------------------------------------------------|
A|------------------------------------------------------------------------------------------|
F|--------------8-8-8-8-8-7-----------8-8-8-8-8-7-----------8-8-8-8-8-7---------------------|
C|--------------X-X-X-X-X-X-----------X-X-X-X-X-X-----------X-X-X-X-X-X---------------------|
G|-1--0-0--0--0-6-6-6-6-6-5-1-0--0--0-6-6-6-6-6-5-1-0--0--0-6-6-6-6-6-5-1-0--0--0-1-0--0--0-|
C|-1--0-0--0--0-------------1-0--0--0-------------1-0--0--0-------------1-0--0--0-1-0--0--0-|

Verse

Guitar 1 (Clean) (Flanger)

D|-------------------|R|-------------------------|
A|-6p5--5--5-5--5--5-|E|-8-8-8-8-8-8-5-5-5-5-5-5-|
F|-5-5--5--5-5--5--5-|P|-5-5-5-5-5-5-5-5-5-5-5-5-|
C|-7-7--7--7-7--7--7-|E|-7-7-7-7-7-7-7-7-7-7-7-7-|
G|-------------------|A|-------------------------|
C|-------------------|T|-------------------------|
                      7
                      X
Guitar 2 (Distorted)

D|--------------------------------------------------------------------|
A|--------------------------------------------------------------------|
F|--------------------------------------------------------------------|
C|-10-10-1010-10-10-10-10-1010-10-10----------------------------------|
G|-8--8--8-8--8--8--8--8--8-8--8--8--0--0--0-0--0--0--0--0--0-0--0--0-|
C|-8--8--8-8--8--8--8--8--8-8--8--8--0--0--0-0--0--0--0--0--0-0--0--0-|



Guitar 1 (Clean) (Flanger)

D|-------------------|R|-------------------------|
A|-6p5--5--5-5--5--5-|E|-8-8-8-8-8-8-5-5-5-5-5-5-|
F|-5-5--5--5-5--5--5-|P|-5-5-5-5-5-5-5-5-5-5-5-5-|
C|-7-7--7--7-7--7--7-|E|-7-7-7-7-7-7-7-7-7-7-7-7-|
G|-------------------|A|-------------------------|
C|-------------------|T|-------------------------|
                      7
                      X

Guitar 2 (Distorted)

D|--------------------------------------------------------------------|
A|--------------------------------------------------------------------|
F|--------------------------------------------------------------------|
C|-10-10-1010-10-10-10-10-1010-10-10----------------------------------|
G|-8--8--8-8--8--8--8--8--8-8--8--8--0--0--0-0--0--0--0--0--0-0--0--0-|
C|-8--8--8-8--8--8--8--8--8-8--8--8--0--0--0-0--0--0--0--0--0-0--0--0-|
                                                             *  *
                                                     play this   3  1
                                                     last time   3  1



Chorus 1

Guitar 2 (distorted)

D|---------------------------------------------------------------------------------------|
A|---------------------------------------------------------------------------------------|
F|-----------8-8-8-8-8-7-----------8-8-8-8-8-7-----------8-8-8-8-8-7---------------------|
C|-----------X-X-X-X-X-X-----------X-X-X-X-X-X-----------X-X-X-X-X-X---------------------|
G|-0-0--0--0-6-6-6-6-6-5-1-0--0--0-6-6-6-6-6-5-1-0--0--0-6-6-6-6-6-5-1-0--0--0-1-0--0--0-|
C|-0-0--0--0-------------1-0--0--0-------------1-0--0--0-------------1-0--0--0-1-0--0--0-|

Guitar 2 (distorted)

D|------------------------------------------------------------------------------------------|
A|------------------------------------------------------------------------------------------|
F|--------------8-8-8-8-8-7-----------8-8-8-8-8-7-----------8-8-8-8-8-7---------------------|
C|--------------X-X-X-X-X-X-----------X-X-X-X-X-X-----------X-X-X-X-X-X---------------------|
G|-1--0-0--0--0-6-6-6-6-6-5-1-0--0--0-6-6-6-6-6-5-1-0--0--0-6-6-6-6-6-5-1-0--0--0-1-0--0--0-|
C|-1--0-0--0--0-------------1-0--0--0-------------1-0--0--0-------------1-0--0--0-1-0--0--0-|

Chorus 2

Guitar 1 (Distorted)

D|----5-----8--6--------8--6------|
A|-8-----6-------10----------10---|
F|------------------10---------10-|
C|--------------------------------|
G|--------------------------------|
C|--------------------------------|

Guitar 2 (Distorted)

D|-----------------------------------------------------------------------------------|
A|-----------------------------------------------------------------------------------|
F|-----------------------------------------------------------------------------------|
C|-7--7-7--7-7--7--7--7/10-10-1010---------------------------------------------------|
G|-5--5-5--5-5--5--5--5/8--8--8-8--1p0-1p0-1-0--0--0-0--1p0-0h1-1-0--0--0-0--1p0-0h1-|
C|-5--5-5--5-5--5--5--5/8--8--8-8--1p0-1p0-1-0--0--0-0--1p0-0h1-1-0--0--0-0--1p0-0h1-|



Bridge 1

Guitar 1 (Distorted)

D|-8--6--------8--6-----------|
A|------10----------10--------|
F|---------10---------10------|
C|----------------------------|
G|----------------------------|
C|----------------------------|

Guitar 2 (Clean) *Turns Up Distortion

D|-1p0------0---1-------1-0---3-0---1-0----0-------1p0------0---1-------3-1-0-1*-|
A|-----------------------------------------1-------------------------------------|
F|-----2------2-------------2-----2-----2--2-----------2------2------------------|
C|-------------------------------------------------------------------------------|
G|-------------------------------------------------------------------------------|
C|----------------0------------------------------------------------0-------------|

Guitar 3 (Clean)

D|--------------------------------------|
A|--------------------------------------|
F|--------------------------------------|
C|-3-----------------------3------------|
G|-1-----------0-----------1----------0-|
C|-------------0----------------------0-|



Bridge 2

Guitar 2 (Distortion)

D|-------------------------------------------------------------|
A|-------------------------------------------------------------|
F|-------------10-10-10-10-10-10-------------10-10-10-10-10-10-|
C|--------------X--X--X--X--X--X--------------X--X--X--X--X--X-|
G|-8-8-8-8-8-8-8--8--8--8--8--8--8-8-8-8-8-8-8--8--8--8--8--8--|
C|-8-8-8-8-8-8-------------------8-8-8-8-8-8-------------------|
   . . . . . .                   . . . . . .

D|-------------------------------------------------------------|
A|-------------------------------------------------------------|
F|-------------14-14-14-14-14-14-------------14-14-14-14-14-14-|
C|--------------X--X--X--X--X--X--------------X--X--X--X--X--X-|
G|-0-0-0-0-0-0-12-12-12-12-12-12-0-0-0-0-0-0-12-12-12-12-12-12-|
C|-0-0-0-0-0-0-------------------0-0-0-0-0-0-------------------|
   . . . . . .                   . . . . . .

Bridge 3

Guitar 2 (Distortion)

D|------------------------------------------------------------------------------------|
A|------------------------------------------------------------------------------------|
F|--------------8--8--8-7-----------8--8--8-7-----------8--8--8-7---------------------|
C|--------------8--8--8-7-----------8--8--8-7-----------8--8--8-7---------------------|
G|-1--0-0--0--0-6--6--6-5-1-0--0--0-6--6--6-5-1-0--0--0-6--6--6-5-1-0--0--0-1-0--0--0-|
C|-1--0-0--0--0-----------1-0--0--0-----------1-0--0--0-----------1-0--0--0-1-0--0--0-|


Chorus 2

Guitar 1 (Distorted)

D|----5-----8--6--------8--6------|
A|-8-----6-------10----------10---|
F|------------------10---------10-|
C|--------------------------------|
G|--------------------------------|
C|--------------------------------|

Guitar 2 (Distorted)

D|-----------------------------------------------------------------------------------|
A|-----------------------------------------------------------------------------------|
F|-----------------------------------------------------------------------------------|
C|-7--7-7--7-7--7--7--7/10-10-1010---------------------------------------------------|
G|-5--5-5--5-5--5--5--5/8--8--8-8--1p0-1p0-1-0--0--0-0--1p0-0h1-1-0--0--0-0--1p0-0h1-|
C|-5--5-5--5-5--5--5--5/8--8--8-8--1p0-1p0-1-0--0--0-0--1p0-0h1-1-0--0--0-0--1p0-0h1-|


Ending

Guitar 2 (Distortion)

D|-------------------------------------------------------------|
A|-------------------------------------------------------------|
F|-------------14-14-14-14-14-14-------------14-14-14-14-14-14-|
C|--------------X--X--X--X--X--X--------------X--X--X--X--X--X-|
G|-0-0-0-0-0-0-12-12-12-12-12-12-0-0-0-0-0-0-12-12-12-12-12-12-|
C|-0-0-0-0-0-0-------------------0-0-0-0-0-0-------------------|
   . . . . . .                   . . . . . .
D|-------------------------------------------------------------|
A|-------------------------------------------------------------|
F|-------------14-14-14-14-14-14-------------14-14-14-14-15-14-|
C|--------------X--X--X--X--X--X--------------X--X--X--X--X--X-|
G|-0-0-0-0-0-0-12-12-12-12-12-12-0-0-0-0-0-0-12-12-12-12-13-12-|
C|-0-0-0-0-0-0-------------------0-0-0-0-0-0-------------------|
   . . . . . .                   . . . . . .
D|-------------------------------------------------------------|
A|-------------------------------------------------------------|
F|-------------14-14-14-14-14-14-------------14-14-14-14-14-14-|
C|--------------X--X--X--X--X--X--------------X--X--X--X--X--X-|
G|-0-0-0-0-0-0-12-12-12-12-12-12-0-0-0-0-0-0-12-12-12-12-12-12-|
C|-0-0-0-0-0-0-------------------0-0-0-0-0-0-------------------|
   . . . . . .                   . . . . . .

D|---------------------------------------------------------------------|
A|---------------------------------------------------------------------|
F|-------------14-14-14-14-14-14-14-14-14-15-14-14-14-14-14-15-14-14---|
C|--------------X--X--X--X--X--X--X--X--X--X_-X--X--X_-X--X--X--X--X---|
G|-0-0-0-0-0-0-12-12-12-12-12-12-12-12-12-13-12-12-12-12-12-13-12-12-0-|
C|-0-0-0-0-0-0-------------------------------------------------------0-|
   . . . . . .
Добавлено: 05.03.2012
Другие материалы по этой песне:
  • Аккорды и текст

Страница создана 05.03.2012
http://primanota.ru/dry-kill-logic/neither-here-nor-missed-chords.htm
Привет, Гость.
Предлагаем пройти революционный курс по гитаре.
Подарок от PrimaNota.Ru, забирай!