PrimaNota.ru - самый крупный в мире бесплатный архив песенных текстов, аккордов, табулатур и нот


Dry Kill Logic - Kingdom Of The Blind - текст песни, таба, видео

Регистрация Запомнить меня
Войти через:  Facebook Google Twitter Vk Yandex Mail.ru

Dry Kill Logic - Kingdom Of The Blind - текст песни, таба, видео

Печатать
Просмотров: 249
OK so here's the tab for Kingdom of the blind by Dry Kill Logic.
Tuning is drop C

Bear with me this is my first tab.
its pretty accurate i think but the actual transcription might be a little rough.
This is a great song, one of my favorites,
and i didnt see it up here so i decided id do it myself.

just listen to the song to get the beat of the notes.

KEY
p - pull off
hold - hold the last note played(duh haha)
/ - slide. Ex. 1/5 means slide from first to fifth fret

0:00 Intro - Acoustic or no distortion
D|----------------------------------------------------------------------------------------|
A|------------1------------------------------------------6--------------3-----------3-----|
F|---------2-----2------------2--3p2-----2------------7-----7-----------------------------|
C|------0-----------0------0----------0-----0------8-----------8-----5-----5-----5-----5--|
G|----------------------------------------------------------------------------0-----------|
C|--0------------------3-----------------------8------------------5-----------------------| x6

0:40 Bridge - Heavy distortion

D|---------------------------------------------|
A|---------------------------------------------|
F|---------------------------------------------|
C|--3--0--0------------------------------------|
G|--3--0--0--0--1/5---0--1/5---0--1/5---0--1/5-|
C|--3--0--0------------------------------------|

D|--------------------------------------------|
A|--------------------------------------------|
F|--------------------------------------------|
C|--3--0--0-----------------------------------|
G|--3--0--0--0--1/5---0--1/5---0--1/5hold-----|
C|--3--0--0-----------------------------------|

D|---------------------------------------------|
A|---------------------------------------------|
F|---------------------------------------------|
C|--3--0--0------------------------------------|
G|--3--0--0--0--1/5---0--1/5---0--1/5---0--1/5-|
C|--3--0--0------------------------------------|

D|---------------------------------------------|
A|---------------------------------------------|
F|---------------------------------------------|
C|--3--0--0------------------------------------|
G|--3--0--0--0--1/5---0--1/5--5--5--5--5--5--5-|
C|--3--0--0------------------------------------|

0:54 Chorus - Im not entirely sure about this part but its still pretty close

D|------------------------------------------------------------------------------------------------|
A|------------------------------------------------------------------------------------------------|
F|------------------------------------------------------------------------------------------------|
C|8--8--8--8--8--8--8--8--0--0--0--0--0--0--0--0--3--3--3--3--3--3--3--3--5--5--5--5--5--5--5--5--|
G|8--8--8--8--8--8--8--8--0--0--0--0--0--0--0--0--3--3--3--3--3--3--3--3--5--5--5--5--5--5--5--5--|
C|8--8--8--8--8--8--8--8--0--0--0--0--0--0--0--0--3--3--3--3--3--3--3--3--5--5--5--5--5--5--5--5--|
 x4

1:23
D|-------------|
A|-------------|
F|-------------|
C|--0hold------|
G|--0hold------|
C|--0hold------|

1:30 Intro x4

1:58 Bridge

2:11 Chorus x4

2:39 Second Bridge - once again pretty close not exactly sure though

D|-----------------------------------------------------------------|
A|-----------------------------------------------------------------|
F|--14--14--14--14--14--14--14--14--14--14--14--14--14--14--14--14-|
C|--12--12--12--12--12--12--12--12--11--11--11--11--11--11--11--11-|
G|--12--12--12--12--12--12--12--12--12--12--12--12--12--12--12--12-|
C|-----------------------------------------------------------------|

D|-----------------------------------------------------------------|
A|-----------------------------------------------------------------|
F|--12--12--12--12--12--12--12--12--12--12--12--12--12--12--12--12-|
C|--10--10--10--10--10--10--10--10--9-- 9-- 9-- 9-- 9-- 9-- 9-- 9--|
G|--10--10--10--10--10--10--10--10--10--10--10--10--10--10--10--10-|
C|-----------------------------------------------------------------|

x 4

3:07 Chorus x4

3:35
D|---------------|
A|---------------|
F|---------------|
C|--0hold--------|
G|--0hold--------|
C|--0hold--------|

3:42 Intro x1

D|--------------------------------------------------------------------------------------|
A|------------1------------------------------------------6------------------------------|
F|---------2-----2------------2--3p2-----2------------7-----7---------------------------|
C|------0-----------0------0----------0-----0------8-----------8------------------------|
G|--------------------------------------------------------------------------------------|
C|--0------------------3-----------------------8------------------5hold-----------------|
Добавлено: 29.05.2012
Другие материалы по этой песне:

Страница создана 29.04.2012
http://primanota.ru/dry-kill-logic/kingdom-of-the-blind-chords.htm
Привет, Гость.
Предлагаем пройти революционный курс по гитаре.
Подарок от PrimaNota.Ru, забирай!