PrimaNota.ru - самый крупный в мире бесплатный архив песенных текстов, аккордов, табулатур и нот


Dry Kill Logic - Hindsight - текст песни, таба, видео

Регистрация Запомнить меня
Войти через:  Facebook Google Twitter Vk Yandex Mail.ru

Dry Kill Logic - Hindsight - текст песни, таба, видео

Печатать
Просмотров: 154
I personaly love this band great band and I went to look for this tab and i couldnt find
it so i started messing around and I figured out the song and i guarantee you won't find
this tab anywhere else. This is 99.9% correct every part to it if you have any comments
on this song or want me to tabs anything out for you, I'll be glad to if I can figure it
out just email me at metalicajason@comcast.net. Have fun =)

Need to know things to play this song- Vibrato~
                                       SLide/
                                       Palm Mute pm...
 
Tuning-Drop D (D,A,D,G,B,E)

E|--------------------------------------------------------------|
B|--------------------------------------------------------------|
G|--------------------------------------------------------------|
D|9/////0-9-9-0-9-0-0-0-9-9-0-9-0-0-0-9-9-0-9-0-0-0-9-9-0-9-----|
A|9/////0-9-9-0-9-0-0-0-9-9-0-9-0-0-0-9-9-0-9-0-0-0-9-9-0-9-5~~~|
D|9/////0-9-9-0-9-0-0-0-9-9-0-9-0-0-0-9-9-0-9-0-0-0-9-9-0-9-----|3 time after this part with out the slide

E|------------------|                             E|-------------------|
B|------------------|                             B|-------------------|
G|------------------|                             G|-------------------|
D|------------------|                             D|-------------------|
A|----5~--5~---5~-5~|play 4 times then on 4th partA|----5~--5~---5~//9~|
D|0000--00--000--0--|                             D|0000--00--000------|
pm....  ..  ...  .                                pm....  ..  ...  

E|--------------------------------------------|
B|--------------------------------------------|
G|--------------------------------------------|
D|0-1-3-1-0--0-1-3-1-0--0-1-3-1-0--0-1-3-1-0--|
A|0-1-3-1-0--0-1-3-1-0--0-1-3-1-0--0-1-3-1-0--|
D|0-1-3-1-0--0-1-3-1-0--0-1-3-1-0--0-1-3-1-0--|then mute last note going into chorus

E|-------------------------------------------------------|
B|-------------------------------------------------------|
G|-------------------------------------------------------|
D|5-5-5-5-5-5-5-5-5-5/9-9-9-9/1-1-1-1-1-1-1-1-1-1/6-6-6-6|
A|5-5-5-5-5-5-5-5-5-5/9-9-9-9/1-1-1-1-1-1-1-1-1-1/6-6-6-6| 4 times
D|5-5-5-5-5-5-5-5-5-5/9-9-9-9/1-1-1-1-1-1-1-1-1-1/6-6-6-6|

E|-------------------------------------------------------|
B|-------------------------------------------------------|
G|-------------------------------------------------------|
D|-------------------------------------------------------|
A|-------------------------------------------------------|
D|0-0-9-9-0-0-9-9-0-0-999-0-0-9-9-0-0-9-9-0-0-999-0-0-9-9|
pm. . . . . . . . . . ... . . . . . . . . . . ... . . . .

E|--------------------------------------------------------------|
B|--------------------------------------------------------------|
G|--------------------------------------------------------------|
D|0-9-9-0-9-0-0-0-9-9-0-9-0-0-0-9-9-0-9-0-0-0-9-9-0-9-----------|
A|0-9-9-0-9-0-0-0-9-9-0-9-0-0-0-9-9-0-9-0-0-0-9-9-0-9-5~~~------|
D|0-9-9-0-9-0-0-0-9-9-0-9-0-0-0-9-9-0-9-0-0-0-9-9-0-9-----------|

E|-------------------------------------------------------|
B|-------------------------------------------------------|
G|-------------------------------------------------------|
D|5-5-5-5-5-5-5-5-5-5/9-9-9-9/1-1-1-1-1-1-1-1-1-1/6-6-6-6|
A|5-5-5-5-5-5-5-5-5-5/9-9-9-9/1-1-1-1-1-1-1-1-1-1/6-6-6-6|
D|5-5-5-5-5-5-5-5-5-5/9-9-9-9/1-1-1-1-1-1-1-1-1-1/6-6-6-6|

E|--------------|
B|--------------|
G|--------------|
D|0------0------|
A|0------0------|
D|0------0------|

any questions email me at metalicajason@comcast.net
Добавлено: 21.03.2012
Другие материалы по этой песне:

Страница создана 27.02.2012
http://primanota.ru/dry-kill-logic/hindsight-chords.htm
Привет, Гость.
Предлагаем пройти революционный курс по гитаре.
Подарок от PrimaNota.Ru, забирай!