PrimaNota.ru - самый крупный в мире бесплатный архив песенных текстов, аккордов, табулатур и нот


Dry Kill Logic - Give In Give Up Lie Down - бас-таба, видео

Регистрация Запомнить меня
Войти через:  Facebook Google Twitter Vk Yandex Mail.ru

Dry Kill Logic - Give In Give Up Lie Down - бас-таба, видео

Печатать
Просмотров: 141
singing starts second time
g|-------------|--------------------|
d|.----0----2--|----0----2----------|   
a|.---0----0---|---0----0-2h3p2p0---|                               
D|--0----3-----|--0----3------------|


g|-------------|----------0---------|
d|-----0----2--|----0----2-2-------.|   
a|----0----0---|---0----0----------.|                                
D|--0----3-----|--0----3------------|x2

g|-------------|--------------------|
d|-----0----2--|----0----2----------|   
a|----0----0---|---0----0-2h3p2p0---|                               
D|--0----3-----|--0----3------------|

g|-------------|--------------------|
d|-----0----2--|--0-1-1-1-----------|   
a|----0----0---|--0-1-1-1-----------|                                
D|--0----3-----|--0-1-1-1-----------|

Rise!
g|-----------------|--------------------|
d|.-0-1-1-1--1-0---|--0-1-1-1--1-0-0h1-.|   
a|.-0-1-1-1--1-0---|--0-1-1-1--1-0-0h1-.|                                
D|--0-1-1-1--1-0-3-|--0-1-1-1--1-0-0h1--|x4
pm             . *a.h.           . 


give up, giv...   x3                 
g|------------------|--------------------|
d|.-0-1-1-1--1-0-3-.|--0-1-1-1--1-0------|  repeat 
a|.-0-1-1-1--1-0-3-.|--0-1-1-1--1-0------|                                
D|--0-1-1-1--1-0-3--|--0-1-1-1--1-0-3----|x2
pm             .                  . *a.h.

Woah..!
g|-------------|--------------------|
d|--0-----3----|--3-----------------|   
a|--0-----3----|--3-----------------|                                
D|--2-----3----|--3-------5v--------|
                          bend

As i lay...
g|-------------|--------------------|
d|-----0----2--|----0----2----------|   
a|----0----0---|---0----0-2h3p2p0---|                               
D|--0----3-----|--0----3------------|


g|-------------|----------0---------|
d|-----0----2--|----0----2-2--------|   
a|----0----0---|---0----0-----------|                                
D|--0----3-----|--0----3------------|

g|-------------|--------------------|
d|-----0----2--|----0----2----------|   
a|----0----0---|---0----0-2h3p2p0---|                               
D|--0----3-----|--0----3------------|

g|-------------|--------------------|
d|-----0----2--|--0-1-1-1-----------|   
a|----0----0---|--0-1-1-1-----------|                                
D|--0----3-----|--0-1-1-1-----------|

Rise!
g|-----------------|--------------------|
d|.-0-1-1-1--1-0---|--0-1-1-1--1-0-0h1-.|   
a|.-0-1-1-1--1-0---|--0-1-1-1--1-0-0h1-.|                                
D|--0-1-1-1--1-0-3-|--0-1-1-1--1-0-0h1--|x4
pm             . *a.h.           .

give up giv...       x3                 
g| |------------------|--------------------| |
d|.|.-0-1-1-1--1-0-3-.|--0-1-1-1--1-0------|.|
a|.|.-0-1-1-1--1-0-3-.|--0-1-1-1--1-0------|.|                              
D| |--0-1-1-1--1-0-3--|--0-1-1-1--1-0-3----| |x2
                                    *a.h.

g|--------------------------|
d|.-0-0-0-1--0-0-0-1-------.|   
a|.-0-0-0-1--0-0-0-1----0--.|                                
D|--0-0-0-1--0-0-0-1-0-3-1--|x4
pm  . . .    . . .           
          

g|----------------------------------|
d|.--------------------------------.|   
a|.---------0-------------0--------.|                                
D|--0--1--3---1---0--1--3---1v------|x4
                              bend 

rrrrrise!
g|--------------------------|
d|.-0-0-0-1--0-0-0-1-------.|   
a|.-0-0-0-1--0-0-0-1----0--.|                                
D|--0-0-0-1--0-0-0-1-0-3-1--|x4
pm  . . .    . . .          

g|-------------|--------------------|
d|--0-----3----|--3-----------------|   
a|--0-----3----|--3-----------------|                                
D|--2-----3----|--3-------5v--------|
                          bend
     
g|-------------|--------------------|
d|-----0----2--|----0----2----------|   
a|----0----0---|---0----0-2h3p2p0---|                                
D|--0----3-----|--0----3------------|

g|-------------|----------0---------|
d|.----0----2--|----0----2----------|   
a|.---0----0---|---0----0-----------|                                
D|--0----3-----|--0----3------------|
                          let last note ring and die away


 RISE!!!
g|-----------------|--------------------|
d|.-0-1-1-1--1-0---|--0-1-1-1--1-0-0h1-.|   
a|.-0-1-1-1--1-0---|--0-1-1-1--1-0-0h1-.|                                
D|--0-1-1-1--1-0-3-|--0-1-1-1--1-0-0h1--|x4
pm             . *a.h.           .

give up, giv...      x3
g| |------------------|--------------------| |
d|.|.-0-1-1-1--1-0-3-.|--0-1-1-1--1-0------|.|
a|.|.-0-1-1-1--1-0-3-.|--0-1-1-1--1-0------|.|                              
D| |--0-1-1-1--1-0-3--|--0-1-1-1--1-0-3----| |x2
                                    *a.h.

g|--------------------------|
d|.-0-0-0-1--0-0-0-1-------.|   
a|.-0-0-0-1--0-0-0-1----0--.|                                
D|--0-0-0-1--0-0-0-1-0-3-1--|x4
pm  . . .    . . .  

     

      


Добавлено: 09.06.2012
Другие материалы по этой песне:
  • Аккорды и текст

Страница создана 09.06.2012
http://primanota.ru/dry-kill-logic/give-in-give-up-lie-down-chords.htm
Привет, Гость.
Предлагаем пройти революционный курс по гитаре.
Подарок от PrimaNota.Ru, забирай!