PrimaNota.ru - самый крупный в мире бесплатный архив песенных текстов, аккордов, табулатур и нот


Dry Kill Logic - Boneyard - текст песни, таба, бас-таба, видео

Регистрация Запомнить меня
Войти через:  Facebook Google Twitter Vk Yandex Mail.ru

Dry Kill Logic - Boneyard - текст песни, таба, бас-таба, видео

Печатать
Просмотров: 143
Dry Kill Logic : Boneyard
Of Vengeance and Violence
Tabbed by Noviz Namclaw (noviznamclaw@yahoo.com)
Tuning : Drop C (CGCFAD)

This is an awesome song off an awesome album.

INTRO:
D|---------------------------------------------------------------------------------|
A|---------------------------------------------------------------------------------|
F|---------------------------------------------------------------------------------|
C|-2-1-0-1-2-1-0-1-2-1-0-1-2-1-0-1-2-1-0-1-2-1-0-1-2-1-0-1-2-1-0-1-2-1-0-1-2-1-0-1-|
G|-2-1-0-1-2-1-0-1-2-1-0-1-2-1-0-1-2-1-0-1-2-1-0-1-2-1-0-1-2-1-0-1-2-1-0-1-2-1-0-1-|
C|-2-1-0-1-2-1-0-1-2-1-0-1-2-1-0-1-2-1-0-1-2-1-0-1-2-1-0-1-2-1-0-1-2-1-0-1-2-1-0-1-|
   . . . . . . . . . . . . . . . . . . . . . . . . . . . . . . . . . . . . . . . .

PRE-VERSE:
D|-------------------------------|
A|-------------------------------|
F|-------------------------------|
C|-------------------------------|
G|-------------------------------|
C|-0-0-1p0-0-1p0-1p0-0-1-3-1-0-0-|

VERSE:
D|-----------------------------------------------|
A|-----------------------------------------------|
F|-----------------------------------------------|
C|-------------------------------7-7-6-6-3-3-3-3-|
G|-00000000000000000000000000000-5-5-6-6-3-3-1-1-|
C|-00000000000000000000000000000-----6-6-3-3-----|
   .............................

D|------------------------------------------|
A|------------------------------------------|
F|------------------------------------------|
C|-0--00000-00000-000000000-7-7-6-6-3-3-3-3-|
G|-0--00000-00000-000000000-5-5-6-6-3-3-1-1-|
C|-0--00000-00000-000000000-----6-6-3-3-----|
   .  ..... ..... .........

PRE-CHORUS:
D|-----------------------------------------------|
A|-----------------------------------------------|
F|-----------------------------------------------|
C|-6p5x-5p3x-3h5-6p5------6p5x-5p3x-3h5-6p5------|
G|-6p5x-5p3x-3h5-6p5------6p5x-5p3x-3h5-6p5------|
C|-6p5x-5p3x-3h5-6p5-3~h5-6p5x-5p3x-3h5-6p5-3~h5-|
                    (x2)

CHORUS:
D|--------------------------------|
A|--------------------------------|
F|--------------------------------|
C|-0-0h1-1h4-4-3-3-6-6-5-5\4-4-\1-|
G|-0-0h1-1h4-4-3-3-6-6-5-5\4-4-\1-|
C|-0-0h1-1h4-4-3-3-6-6-5-5\4-4-\1-|

PRE-VERSE:
D|-------------------------------|
A|-------------------------------|
F|-------------------------------|
C|-------------------------------|
G|-------------------------------|
C|-0-0-1p0-0-1p0-1p0-0-1-3-1-0-0-|

VERSE:
D|-----------------------------------------------|
A|-----------------------------------------------|
F|-----------------------------------------------|
C|-------------------------------7-7-6-6-3-3-3-3-|
G|-00000000000000000000000000000-5-5-6-6-3-3-1-1-|
C|-00000000000000000000000000000-----6-6-3-3-----|
   .............................

D|------------------------------------------|
A|------------------------------------------|
F|------------------------------------------|
C|-0--00000-00000-000000000-7-7-6-6-3-3-3-3-|
G|-0--00000-00000-000000000-5-5-6-6-3-3-1-1-|
C|-0--00000-00000-000000000-----6-6-3-3-----|
   .  ..... ..... .........

PRE-CHORUS:
D|-----------------------------------------------|
A|-----------------------------------------------|
F|-----------------------------------------------|
C|-6p5x-5p3x-3h5-6p5------6p5x-5p3x-3h5-6p5------|
G|-6p5x-5p3x-3h5-6p5------6p5x-5p3x-3h5-6p5------|
C|-6p5x-5p3x-3h5-6p5-3~h5-6p5x-5p3x-3h5-6p5-3~h5-|
                    (x2)

CHORUS:
D|--------------------------------|
A|--------------------------------|
F|--------------------------------|
C|-0-0h1-1h4-4-3-3-6-6-5-5\4-4-\1-|
G|-0-0h1-1h4-4-3-3-6-6-5-5\4-4-\1-|
C|-0-0h1-1h4-4-3-3-6-6-5-5\4-4-\1-|

BRIDGE:
Part 1(Guitar alone)
D|-------------------------------------------------------------|
A|-------------------------------------------------------------|
F|-------------------------------------------------------------|
C|-------------------------------------------------------------|
G|-------------------------------------------------------------|
C|-0-1p0-0-1p0-1p0-0-1-3-4-3-1-0-1p0-1p0-0-1p0-1p0-0-1-3-1-0-0-|

Part 2(with bass n drums)
D|-----------------------------------------------------------5*-|
A|--------------------------------------------------------------|
F|--------------------------------------------------------------|
C|--------------------------------------------------------------|
G|--------------------------------------------------------------|
C|-0-1p0-0-1p0-1p0-0-1-3-4-3-1-0-1p0-1p0-0-1p0-1p0-0-1-3-1-0----|
                            (x4)

* - pinch harmonic, though i'm not very sure if the thing being played is pinch harm. or not.

PAUSE : BASS PLAYS THE PRE-CHORUS

Repeat the CHORUS

OUTRO
D|---------------------------------------------------------------------------------|
A|---------------------------------------------------------------------------------|
F|---------------------------------------------------------------------------------|
C|-2-1-0-1-2-1-0-1-2-1-0-1-2-1-0-1-2-1-0-1-2-1-0-1-2-1-0-1-2-1-0-1-2-1-0-1-2-1-0-1-|
G|-2-1-0-1-2-1-0-1-2-1-0-1-2-1-0-1-2-1-0-1-2-1-0-1-2-1-0-1-2-1-0-1-2-1-0-1-2-1-0-1-|
C|-2-1-0-1-2-1-0-1-2-1-0-1-2-1-0-1-2-1-0-1-2-1-0-1-2-1-0-1-2-1-0-1-2-1-0-1-2-1-0-1-|
   . . . . . . . . . . . . . . . . . . . . . . . . . . . . . . . . . . . . . . . .
Repeat as many times as needed.

TAB LEGEND:
h - Hammer on
p - Pull off
. - Palm mute
x - dead note
/ \ - slide from - to
Добавлено: 22.05.2012
Другие материалы по этой песне:

Страница создана 04.03.2012
http://primanota.ru/dry-kill-logic/boneyard-chords.htm
Привет, Гость.
Предлагаем пройти революционный курс по гитаре.
Подарок от PrimaNota.Ru, забирай!