PrimaNota.ru - самый крупный в мире бесплатный архив песенных текстов, аккордов, табулатур и нот


Dry Cell - New Revolution - текст песни, таба, видео

Регистрация Запомнить меня
Войти через:  Facebook Google Twitter Vk Yandex Mail.ru

Dry Cell - New Revolution - текст песни, таба, видео

Печатать
Просмотров: 195
New Revolution intro tab tabbed by Rob Routon (poolshark880@hotmail.com)

Tuning: Drop Db or C# (Tuners: Press b (flat) button once for top 5 strings and 3 times 
lowest string)

Here's the intro:

gtr.1
Eb|-----------------------------------------------------------------------||
Bb|-----------------------------------------------------------------------||
Gb|--9p7h9p7h9p7h9p7------------------------------------------------------||
Db|-------------------9p7h9p7h9p7h9p7---12p9h12p9h12p9h12p9---------------||
Ab|-----------------------------------------------------------------------||
Db|-----------------------------------------------------------------------||

Eb|-----------------------------------------------------------------------||
Bb|-----------------------------------------------------------------------||
Gb|-----------------------------------------------------------------------||
Db|----11p9h11p9h11p9h11p9--(x2)---------11p9h11p9h11---------------------||
Ab|-----------------------------------------------------------------------||
Db|-----------------------------------------------------------------------||
 2nd time through riff on 4th measure it's ^ shortened ^


gtr.2  uses these chords
Eb|-----------------------------------------------------------------------||
Bb|-----------------------------------------------------------------------||
Gb|----9------------------------------------------------------------------||
Db|----9----7----9----9---------------------------------------------------||
Ab|----7----7----9----9---------------------------------------------------||
Db|---------7----9----9---------------------------------------------------||

This is my 2nd tab, Dry Cell isnt a wide known band but ppl r missing out cuz they rock! 
anyone wants the full tab to this song lemme know n ill start workn on it. Contact me 
poolshark880@hotmail.com.
Добавлено: 15.05.2012
Другие материалы по этой песне:
  • Аккорды и текст

Страница создана 07.05.2012
http://primanota.ru/dry-cell/new-revolution-chords.htm
Привет, Гость.
Предлагаем пройти революционный курс по гитаре.
Подарок от PrimaNota.Ru, забирай!