PrimaNota.ru - самый крупный в мире бесплатный архив песенных текстов, аккордов, табулатур и нот


Dry Cell - Living For Nothing - таба, видео

Регистрация Запомнить меня
Войти через:  Facebook Google Twitter Vk Yandex Mail.ru

Dry Cell - Living For Nothing - таба, видео

Печатать
Просмотров: 145
Dry Cell: Living For Nothing

Transcribed by: mysticguitar77

Facebook: https://www.facebook.com/MysticGuitar77
YouTube Channel: https://www.youtube.com/user/MysticGuitar77

Date last modified: May 18, 2015

Tuning: Drop A (A,E,A,D,F#,B)

Riff 1 (clean, let all chords ring out)   "I cannot deal..."
 B|----------------|
F#|----------------|
 D|-3----3---------|
 A|-1----x----7----|
 E|-1----5----3----|
 A|------5----3----|

Play Riff 1 x2

Riff 2 (distortion)   "...again..."
 B|-------------------------------------------|
F#|-------------------------------------------|
 D|-------------------------------------------|
 A|-------------------------------------------|
 E|------0-0--0---0-0-0-----0-0--0---0-0-0--0-|
 A|-8--7-0-0--0---0-0-0-8-7-0-0--0---0-0-0--0-|
         * *      * * *     * *      * * *

Play Riff 2 x4   "I don't want to show my face to the world today..."

Riff 3   "You left me living inside of this hole..."
 B|-----------------------------|
F#|-----------------------------|
 D|-----------------------------|
 A|-----------------------------|
 E|-0-0-0-1--11-1-0-0-0-0--00-0-|
 A|-0-0-0-1--11-1-0-0-0-0--00-0-|
    * * *    ** * * * *    ** *
                        ^ ends here final time

Play Riff 3 x4   "I feel myself losing control..."

Riff 4   "What would it be like to live a day in your life..."
 B|-----------------------------------------|
F#|-4--4--4-4-------------------------------|
 D|-3--3--3-3-------------------------------|
 A|-1--1--1-1-8--8--8-8-7--7--7-7-7--7--7-7-|
 E|-1--1--1-1-5--5--5-5-3--3--3-3-3--3--3-3-|
 A|-1--1--1-1-5--5--5-5-3--3--3-3-3--3--3-3-|

Play Riff 4 x4   "I cannot deal with the way that I feel inside..."
Play Riff 2 x2   "I don't want to have to beg for another way..."
Play Riff 3 x4   "You left me living  inside of this hole..."
Play Riff 4 x4   "What would it be like to live a day in your life..."

Riff 5   "I don't want to show my face..."
 B|----------------------|
F#|-13~------------------|
 D|------------12*-------|
 A|----------------------|
 E|----------------------|
 A|---------5*-----5*-5*-|

Play Riff 5 x2   "I don't want to show my face..."
Play Riff 3 x4   "You left me living inside of this hole..."
Play Riff 4 x8   "What would it be like to live a day in your life..."

Ending
 B|-------------------------------|
F#|-------------------------------|
 D|-------------------------------|
 A|-------------------------------|
 E|------0-0--0---0-0-0-----0-0-0-|
 A|-8--7-0-0--0---0-0-0-8-7-0-0-0-|
         * *      * * *     * *

Enjoy!!
Добавлено: 20.10.2015
Другие материалы по этой песне:
  • Аккорды и текст

Страница создана 20.10.2015
http://primanota.ru/dry-cell/living-for-nothing-chords.htm
Привет, Гость.
Предлагаем пройти революционный курс по гитаре.
Подарок от PrimaNota.Ru, забирай!