PrimaNota.ru - самый крупный в мире бесплатный архив песенных текстов, аккордов, табулатур и нот


Drowning Pool - Rise Up - таба, видео

Регистрация Запомнить меня
Войти через:  Facebook Google Twitter Vk Yandex Mail.ru

Drowning Pool - Rise Up - таба, видео

Печатать
Просмотров: 179
Standard Tuning

First Tab.

intro/ verse

e---------------------------------------------|
B-----------------------------------0---------|
G---------1-----1-------1------------1--------|
D---------------------------------------------|
A-----------------4-------0--0--0-------4-----|
E---2--2-----2------2---------------------2---|

Powerchords in verse:
F# A
e--------------------|
B--------------------|
G--------------------|
D--4------------7----|
A--4------------7----|
E--2------------5----|

Chorus:
D B F# F# D B
e---------------------------------|
B---------------------------------|
G--7-------------------7----------|
D--7---9--4------------7----9-----|
A--5---9--4---5---4----5----7-----|
E------7--2---2---2---------7-----|

Post-Chorus:
E F# E F# E F# E F# E R# E F# G
e--------------------------------------------------------|
B--------------------------------------------------------|
G--------------------------------------------------------|
D--------------------------------------------------------|
A--2--4--2--4--2--4------------2--4--2--4--2--4--5-------|
E--0--2--0--2--0--2--x--x---x--0--2--0--2--0--2--3-------|

Solo:
e------14-17-14----14--------------------------------------------------------|
B--17b----------17----17-14-17-14----14--------------------------------------|
G---------------------------------16----16--14h16h14----14-------------------|
D----------------------------------------------------16----16-15-14----------|
A----------------------------------------------------------------------------|
E----------------------------------------------------------------------------|

e-----------------------------------------------------------------------------|
B-----------------------------------------------------------------------------|
G-1h2h1---1h2h1-----------------------------------14-16-14-16-14-13-14-13-----|
D-------4-------2-4/9--7h9h7----7-------------14-16----------------------14-16|
A-----------------------------9--9-8-7--14-16---------------------------------|
E-----------------------------------------------------------------------------|

e-17-14-17-14-----------------------------------------------------------------|
B-------------17-14-17-14----14----14------------------------17b--------------|
G-------------------------17----16----14h16h14---14---------------------------|
D----------------------------------------------16---16-15-14------------------|
A-----------------------------------------------------------------------------|
E-----------------------------------------------------------------------------|


h= hammer-on / hammer-off
/= slide
b= bend
Добавлено: 10.08.2013
Другие материалы по этой песне:

Страница создана 24.05.2012
http://primanota.ru/drowning-pool/rise-up-chords.htm
Привет, Гость.
Предлагаем пройти революционный курс по гитаре.
Подарок от PrimaNota.Ru, забирай!