PrimaNota.ru - самый крупный в мире бесплатный архив песенных текстов, аккордов, табулатур и нот


Dropping Daylight - Blame Me - текст песни, таба, видео

Регистрация Запомнить меня
Войти через:  Facebook Google Twitter Vk Yandex Mail.ru

Dropping Daylight - Blame Me - текст песни, таба, видео

Печатать
Просмотров: 160
-----------------------------------------------------------------
Blame Me - Dropping Daylight
-----------------------------------------------------------------
Tabbed by: Bair
Email: bair_morritt@hotmail.com

Tuning: Standard

**This just the rhythm guitar part and I think the verse is wrong but its a start**

(Piano at start)

Intro:
e|------------------------------------------|
B|------------------------------------------|
G|--222--44--222--44--222--44---------------|
D|--222--44--222--44--222--44---------------|
A|--000--22--000--22--000--22---------------|
E|------------------------------------------|

Verse:
e|------------------------------------------|
B|------------------------------------------|
G|------------------------------------------|
D|--222-444-222-444-2222—(X? very fast)-----|
A|--222-444-222-444-2222--------------------|
E|--000-222-000-222-0000--------------------|
“What does it take....”

Chorus (X2):
e|------------------------------------------|
B|------------------------------------------|
G|-66---------------222222--444444----------|
D|-66--222222—(X3)--222222--444444----------|
A|-44--222222-------000000--222222----------|
E|-----000000-------------------------------|
“Blame me, you can do your best....”

-Then Verse

Chorus 2 (X2):
e|------------------------------------------|
B|------------------------------------------|
G|-66---------------222222--444444----------|
D|-66--222222—(X3)--222222--444444----------|
A|-44--222222-------000000--222222----------|
E|-----000000-------------------------------|
“Blame me, you can do your best....”

e|------------------------------------------|
B|------------------------------------------|
G|--2222--444444----------------------------|
D|--2222--444444—(X3)-----------------------|
A|--0000--222222----------------------------|
E|------------------------------------------|
“Save yourself for someone else...”

Interlude:
e|------------------------------------------|
B|------------------------------------------|
G|--2222--4444--------66--44----------------|
D|--2222--4444--2222--66--44----------------|
A|--0000--2222--2222--44--22----------------|
E|--------------0000------------------------|
“I'm not too proud....”

e|------------------------------------------|
B|------------------------------------------|
G|--2222--4444--666666--4444----------------|
D|--2222--4444--666666--4444----------------|
A|--0000--2222--444444--2222----------------|
E|------------------------------------------|
“To doubt these words....”

-Then Chorus2 (X2)
-Then piano

Ending:
e|---------|
B|---------|
G|-666-----|
D|-666--2--|
A|-444--2--|
E|------0--|
Добавлено: 20.05.2012
Другие материалы по этой песне:
  • Аккорды и текст

Страница создана 26.02.2012
http://primanota.ru/dropping-daylight/blame-me-chords.htm
Привет, Гость.
Предлагаем пройти революционный курс по гитаре.
Подарок от PrimaNota.Ru, забирай!