PrimaNota.ru - самый крупный в мире бесплатный архив песенных текстов, аккордов, табулатур и нот


Dropout Year - This Notebook - таба, видео

Регистрация Запомнить меня
Войти через:  Facebook Google Twitter Vk Yandex Mail.ru

Dropout Year - This Notebook - таба, видео

Печатать
Просмотров: 163
----------------------------------------------------------------------------
          "This Notebook" by Dropout Year
----------------------------------------------------------------------------



Intro

E|---------------------------------------------------------------------|
B|---------------------------------------------------------------------|
G|---7-7-7-9-9----7-7-7-11-11----7-7-7-9-9----7-7-7-14-14-11-11--------|
D|---x-x-x-x-x----x-x-x-x--x-----x-x-x-x-x----x-x-x-x--x--x--x---------|
A|---5-5-5-7-7----5-5-5-9--9-----5-5-5-7-7----5-5-5-12-12-9--9---------|
D|---------------------------------------------------------------------|

E|---------------------------------------------------------------------|
B|---7-7-7-9-9----7-7-7-11-11----14-14-14-14-14-14-11-11-11-11-9-9-7---|
G|---x-x-x-x-x----x-x-x-x--x-----x--x--x--x--x--x--x--x--x--x--x-x-x---|
D|---5-5-5-7-7----5-5-5-9--9-----12-12-12-12-12-12-9--9--9--9--7-7-5---|
A|---------------------------------------------------------------------|
D|---------------------------------------------------------------------|



Verse


E|---5---5---5---5-----------------------------------------------------|
B|-------------------7---7---7---7---5---5---5---5---7---7---7---7-----|
G|-----7---7---7---7---7---7---7---7---7---7---7---7---7---7---7---7---|
D|---------------------------------------------------------------------|  x2
A|---------------------------------------------------------------------|
D|---------------------------------------------------------------------|
     * * * * * * * * * * * * * * * * * * * * * * * * * * * * * * * * 

  
(Tip toe in a new direction)

E|-----------------------------------------------------------------|
B|-----------------------------------------------------------------|
G|-----------------------------------------------------------------|
D|---0-0-0-0-0--0-0--0-0--0-0-0----5-5-5-5-5--5-5--5-5--5-5-5------|  
A|---0-0-0-0-0--0-0--0-0--0-0-0----5-5-5-5-5--5-5--5-5--5-5-5------|
D|---0-0-0-0-0--0-0--0-0--0-0-0----5-5-5-5-5--5-5--5-5--5-5-5------|

Pre-Chorus
(If youre trying to find..)
E|-----------------------------------------------|
B|-----------------------------------------------|
G|-----------------------------------------------|
D|---9--------7--------5--------7-7--7-7---------|
A|---9--------7--------5--------7-7--7-7---------|
D|---9--------7--------5--------7-7--7-7---------|


Chorus
E|---------------------------------------------------------------------|
B|---------------------------------------------------------------------|
G|---------------------------------------------------------------------|
D|---0-0-0-0-0-0-0-0-0-0-0-0-0-0-0-7-7-9-9-9-9-9-9-9-9-9-9-9-9-9-9-9---|
A|---0-0-0-0-0-0-0-0-0-0-0-0-0-0-0-7-7-9-9-9-9-9-9-9-9-9-9-9-9-9-9-9---|
D|---0-0-0-0-0-0-0-0-0-0-0-0-0-0-0-7-7-9-9-9-9-9-9-9-9-9-9-9-9-9-9-9---|


E|-------------------------------------|
B|-------------------------------------|
G|-------------------------------------|
D|---7-7-5-5-5-5-5-5-7-7-7-7-7-7-0-----|
A|---7-7-5-5-5-5-5-5-7-7-7-7-7-7-0-----|
D|---7-7-5-5-5-5-5-5-7-7-7-7-7-7-0-----|


Verse


E|---5---5---5---5-----------------------------------------------------|
B|-------------------7---7---7---7---5---5---5---5---7---7---7---7-----|
G|-----7---7---7---7---7---7---7---7---7---7---7---7---7---7---7---7---|
D|---------------------------------------------------------------------|  x2
A|---------------------------------------------------------------------|
D|---------------------------------------------------------------------|
     * * * * * * * * * * * * * * * * * * * * * * * * * * * * * * * * 

  
(Oh, over something they seem..)

E|-----------------------------------------------------------------|
B|-----------------------------------------------------------------|
G|-----------------------------------------------------------------|
D|---0-0-0-0-0--0-0--0-0--0-0-0----5-5-5-5-5--5-5--5-5--5-5-5------|  
A|---0-0-0-0-0--0-0--0-0--0-0-0----5-5-5-5-5--5-5--5-5--5-5-5------|
D|---0-0-0-0-0--0-0--0-0--0-0-0----5-5-5-5-5--5-5--5-5--5-5-5------|

Pre-Chorus


(If youre trying to find..)
E|---------------------------------------------------------------|
B|---7-----------7----------8-----------10-10----10-10-----------|
G|---7-----------7----------9-----------9--9-----9--9------------|
D|---4-----------5----------7-----------7--7-----7--7------------|  
A|---4-----------5----------7-----------7--7-----7--7------------|
D|---4-----------5----------7-----------7--7-----7--7------------|


Chorus
E|---------------------------------------------------------------------|
B|---------------------------------------------------------------------|
G|---------------------------------------------------------------------|
D|---0-0-0-0-0-0-0-0-0-0-0-0-0-0-0-7-7-9-9-9-9-9-9-9-9-9-9-9-9-9-9-9---|
A|---0-0-0-0-0-0-0-0-0-0-0-0-0-0-0-7-7-9-9-9-9-9-9-9-9-9-9-9-9-9-9-9---|
D|---0-0-0-0-0-0-0-0-0-0-0-0-0-0-0-7-7-9-9-9-9-9-9-9-9-9-9-9-9-9-9-9---|


E|------------------------------------|
B|------------------------------------|
G|------------------------------------|
D|---7-7-5-5-5-5-5-5-7-7-7-7-7-7------|
A|---7-7-5-5-5-5-5-5-7-7-7-7-7-7------|
D|---7-7-5-5-5-5-5-5-7-7-7-7-7-7------|




Bridge

(Every word you ever doubted..)

E|-----------------------------------|
B|-----------------------------------|
G|-----------------------------------|
D|---2-2-2-2-2-2-4-4-5-5-5-5-5-5-----|  
A|---2-2-2-2-2-2-4-4-5-5-5-5-5-5-----|
D|---2-2-2-2-2-2-4-4-5-5-5-5-5-5-----|

(Broke down beyond repair..)
E|-----------------------------------|
B|-----------------------------------|
G|-----------------------------------|
D|---2-2-2-2-2-2-5-5-5-7-7-7---------|  
A|---2-2-2-2-2-2-5-5-5-7-7-7---------|
D|---2-2-2-2-2-2-5-5-5-7-7-7---------|

Solo

E|-----------------------------------------------------------------------|
B|-----------------------------------------------------------------------|
G|---7--9---12--11---7—9--—12-11----14-12-11-----------------------------|
D|-------------------------------12----------12--------------------------|  
A|-----------------------------------------------------------------------|
D|-----------------------------------------------------------------------|

E|-----------------------------------------------------------------------|
B|---15-14----17-15-14-------15-14----17-15-14---------------------------|
G|---------14----------14----------14----------14------------------------|
D|-----------------------------------------------------------------------|  
A|-----------------------------------------------------------------------|
D|-----------------------------------------------------------------------|

E|-----------------------------------------------------------------------|
B|-----------------------------------------------------------------------|
G|---14/16-14-12-11-9/11/9-7---------------------------------------------|
D|-------------------------------7--9----12--11--------------------------|  
A|-----------------------------------------------------------------------|
D|-----------------------------------------------------------------------|

E|-----------------------------------------------------------------------|
B|-------2-3--2-3-5—-3-5-7--5-7-8--7-8-10--8-10-12--10-12-14-—12-14-15---|
G|---2-4-----------------------------------------------------------------|
D|-----------------------------------------------------------------------|  
A|-----------------------------------------------------------------------|
D|-----------------------------------------------------------------------|


Chorus
E|---------------------------------------------------------------------|
B|---------------------------------------------------------------------|
G|---------------------------------------------------------------------|
D|---0-0-0-0-0-0-0-0-0-0-0-0-0-0-0-7-7-9-9-9-9-9-9-9-9-9-9-9-9-9-9-9---|
A|---0-0-0-0-0-0-0-0-0-0-0-0-0-0-0-7-7-9-9-9-9-9-9-9-9-9-9-9-9-9-9-9---|
D|---0-0-0-0-0-0-0-0-0-0-0-0-0-0-0-7-7-9-9-9-9-9-9-9-9-9-9-9-9-9-9-9---|


E|------------------------------------|
B|------------------------------------|
G|------------------------------------|
D|---7-7-5-5-5-5-5-5-7-7-7-7-7-7------|        x2
A|---7-7-5-5-5-5-5-5-7-7-7-7-7-7------|
D|---7-7-5-5-5-5-5-5-7-7-7-7-7-7------|

End

E|-----------------------------------|
B|-----------------------------------|
G|-----------------------------------|
D|---2-2-2-2-2-2-5-5-5-7-7-7---------|  
A|---2-2-2-2-2-2-5-5-5-7-7-7---------|
D|---2-2-2-2-2-2-5-5-5-7-7-7---------|
Добавлено: 21.07.2012
Другие материалы по этой песне:
  • Аккорды и текст

Страница создана 21.07.2012
http://primanota.ru/dropout-year/this-notebook-chords.htm
Привет, Гость.
Предлагаем пройти революционный курс по гитаре.
Подарок от PrimaNota.Ru, забирай!