PrimaNota.ru - самый крупный в мире бесплатный архив песенных текстов, аккордов, табулатур и нот


Dropout Year - Theres A Fine Line - таба, видео

Регистрация Запомнить меня
Войти через:  Facebook Google Twitter Vk Yandex Mail.ru

Dropout Year - Theres A Fine Line - таба, видео

Печатать
Просмотров: 95
INTRO
             E  E  E  E  E  E  E  E     E  E  E  E  E  E  E  E   
E||-------|--------3--------1--------|--0--1--0-----------3-----|
B||-------|--------------------------|-----------1--------------|
G||-------|-----2--------2--------2--|-----------------2--------|
D||-------|--------------------------|--------------3-----L--3--|
A||-------|--0-----L--0-----L--0-----|-----------L--------------|
E||-------|--------------------------|--------------------------|


  E  E  E  E  E  E  E  E     E  E  E  E  E  E  E  E     E  E  E  E  E  E  E  E   
-----1--------0--1--0-----|--------3--------1--------|--0--1--0-----------3-----|
-----------------------1--|--------------------------|-----------1--------------|
--2--------2--------------|-----2--------2--------2--|-----------------2--------|
-----L--3--------------L--|--------------------------|--------------3-----L--3--|
--------------------------|--0-----L--0-----L--0-----|-----------L--------------|
--------------------------|--------------------------|--------------------------|


  E  E  E  E  E  E  E  E     E  E  E  E  E  E  E  E     E  E  E  E  E  E  E  E   
-----1--------0--1--0-----|--------3--------1--------|--0--1--0-----------3-----|
-----------------------1--|--------------------------|-----------1--------------|
--2--------2--------------|-----2--------2--------2--|-----------------2--------|
-----L--3--------------L--|--------------------------|--------------3-----L--3--|
--------------------------|--0-----L--0-----L--0-----|-----------L--------------|
--------------------------|--------------------------|--------------------------|


  E  E  E  E  E  E  E  E     E  E  E  E  E  E  E  E     E  E  E  E  E  E  E  E   
-----1--------0--1--0-----|--------3--------1--------|--0--1--0-----------3-----|
-----------------------1--|--------------------------|-----------1--------------|
--2--------2--------------|-----2--------2--------2--|-----------------2--------|
-----L--3--------------L--|--------------------------|--------------3-----L--3--|
--------------------------|--0-----L--0-----L--0-----|-----------L--------------|
--------------------------|--------------------------|--------------------------|


  E  E  E  E  E  E  E  E 
-----1--------0--1--0-----|
-----------------------1--|
--2--------2--------------|
-----L--3--------------L--|
--------------------------|
--------------------------|

CHORUS
  E  S S S S E  S S S S E  S S   S S E  S S S S E  S S S S E      S S S S E  S S S S E  S S S S  
--3--3-3-3-3-3--3-3-3-3-1--1-1-|--1-1-0--0-0-0-0-3--3-3-3-3-3--|--3-3-3-3-1--1-1-1-1-0--0-0-0-0-|
-------------------------------|-------------------------------|--------------------------------|
-------------------------------|-------------------------------|--------------------------------|
-------------------------------|-------------------------------|--------------------------------|
-------------------------------|-------------------------------|--------------------------------|
-------------------------------|-------------------------------|--------------------------------|


  E  S S S S E  S S S S E  S S    S S E  S S S S E  S S S S E   
-------------------------------|-------------------------------|
--1--1-1-1-1-1--1-1-1-1-3--3-3-|--3-3-3--3-3-3-3-5--5-5-5-5-5--|
-------------------------------|-------------------------------|
-------------------------------|-------------------------------|
-------------------------------|-------------------------------|
-------------------------------|-------------------------------|


  S S S S E  S S S S E  S S S S    E  S S S S E  S S S S E  S S  
--------------------------------|--3--3-3-3-3-3--3-3-3-3-1--1-1-|
--5-5-5-5-5--5-5-5-5-5--5-5-5-5-|-------------------------------|
--------------------------------|-------------------------------|
--------------------------------|-------------------------------|
--------------------------------|-------------------------------|
--------------------------------|-------------------------------|


  S S E  S S S S E  S S S S E     S S S S E  S S S S E  S S S S  
--1-1-0--0-0-0-0-3--3-3-3-3-3--|--3-3-3-3-1--1-1-1-1-0--0-0-0-0-|
-------------------------------|--------------------------------|
-------------------------------|--------------------------------|
-------------------------------|--------------------------------|
-------------------------------|--------------------------------|
-------------------------------|--------------------------------|


  E  S S S S E  S S S S E  S S    S S E  S S S S E  S S S S E   
-------------------------------|-------------------------------|
--1--1-1-1-1-1--1-1-1-1-3--3-3-|--3-3-3--3-3-3-3-5--5-5-5-5-5--|
-------------------------------|-------------------------------|
-------------------------------|-------------------------------|
-------------------------------|-------------------------------|
-------------------------------|-------------------------------|


  S S S S E  S S S S E  S S S S  
--------------------------------|
--5-5-5-5-5--5-5-5-5-5--5-5-5-5-|
--------------------------------|
--------------------------------|
--------------------------------|
--------------------------------|

PRE-VERSE
  E  E  E  E  E  E  E  E     E  E  E  E  E  E  E  E   
--------3--------1--------|--0--1--0-----------3-----|
--------------------------|-----------1--------------|
-----2--------2--------2--|-----------------2--------|
--------------------------|--------------3-----L--3--|
--0-----L--0-----L--0-----|-----------L--------------|
--------------------------|--------------------------|


  E  E  E  E  E  E  E  E     E  E  E  E  E  E  E  E     E  E  E  E  E  E  E  E   
-----1--------0--1--0-----|--------3--------1--------|--0--1--0-----------3-----|
-----------------------1--|--------------------------|-----------1--------------|
--2--------2--------------|-----2--------2--------2--|-----------------2--------|
-----L--3--------------L--|--------------------------|--------------3-----L--3--|
--------------------------|--0-----L--0-----L--0-----|-----------L--------------|
--------------------------|--------------------------|--------------------------|


  E  E  E  E  E  E  E  E   
-----1--------0--1--0-----|
-----------------------1--|
--2--------2--------------|
-----L--3--------------L--|
--------------------------|
--------------------------|


VERSE
   E   S  E   S  E  Q    E  S S    S S  E  E  E   E   S  S  S  S  E   
--------------------------------|------------------------------------|
--------------------------------|------------------------------------|
--12--12-12--12-10-------9--9-9-|--L-9-10--9--5--12--12-12-12-12-10--|
--------------------------------|------------------------------------|
--10--10-10--10--8-------7--7-7-|--L-7--8--7--3--10--10-10-10-10--8--|
--------------------------------|------------------------------------|

   S  S  S  S E  S S S S  E  E  E   
-----------------------------------|
-----------------------------------|
--10-10-10-10-9--9-9-9-9-10--9--5--|
-----------------------------------|
---8--8--8--8-7--7-7-7-7--8--7--3--|
-----------------------------------|

   E   S  S  S  S  E   S  S  S  S E  S S    S S  E  E  E   E   S  S  S  S  E   
-----------------------------------------|------------------------------------|
-----------------------------------------|------------------------------------|
--12--12-12-12-12-10--10-10-10-10-9--9-9-|--9-9-10--9--5--12--12-12-12-12-10--|
-----------------------------------------|------------------------------------|
--10--10-10-10-10--8---8--8--8--8-7--7-7-|--7-7--8--7--3--10--10-10-10-10--8--|
-----------------------------------------|------------------------------------|


   S  S  S  S E  S S S S  E  Q        E   S  S  S  S  E   S  S  S  S E  S S  
----------------------------------|-----------------------------------------|
----------------------------------|-----------------------------------------|
--10-10-10-10-9--9-9-9-9-10-------|--12--12-12-12-12-10--10-10-10-10-9--9-9-|
----------------------------------|-----------------------------------------|
---8--8--8--8-7--7-7-7-7--8-------|--10--10-10-10-10--8---8--8--8--8-7--7-7-|
----------------------------------|-----------------------------------------|


  S S  E  E  E   E   S  S  S  S  E      S  S  S  S E  S S S S  E  E  E   
------------------------------------|-----------------------------------|
------------------------------------|-----------------------------------|
--9-9-10--9--5--12--12-12-12-12-10--|--10-10-10-10-9--9-9-9-9-10--9--5--|
------------------------------------|-----------------------------------|
--7-7--8--7--3--10--10-10-10-10--8--|---8--8--8--8-7--7-7-7-7--8--7--3--|
------------------------------------|-----------------------------------|


   E   S  S  S  S  E   S  S  S  S E  S S    S S  E  E  E   E   S  S  S  S  E   
-----------------------------------------|------------------------------------|
-----------------------------------------|------------------------------------|
--12--12-12-12-12-10--10-10-10-10-9--9-9-|--9-9-10--9--5--12--12-12-12-12-10--|
-----------------------------------------|------------------------------------|
--10--10-10-10-10--8---8--8--8--8-7--7-7-|--7-7--8--7--3--10--10-10-10-10--8--|
-----------------------------------------|------------------------------------|


   S  S  S  S E  S S S S E  S S S S 
------------------------------------|
------------------------------------|
--10-10-10-10-9--9-9-9-9-9--9-9-9-9-|
------------------------------------|
---8--8--8--8-7--7-7-7-7-7--7-7-7-7-|
------------------------------------|

CHORUS
   E   S  S  S  S  E   S  S  S  S  E   S  S     S  S E  S S S S  E   S  S  S  S  E  
--------------------------------------------|---------------------------------------|
--------------------------------------------|---------------------------------------|
--12--12-12-12-12-12--12-12-12-12-10--10-10-|--10-10-9--9-9-9-9-12--12-12-12-12-12--|
--------------------------------------------|---------------------------------------|
--10--10-10-10-10-10--10-10-10-10--8---8--8-|---8--8-7--7-7-7-7-10--10-10-10-10-10--|
--------------------------------------------|---------------------------------------|

   S  S  S  S  E   S  S  S  S E  S S S S  
-----------------------------------------|
-----------------------------------------|
--12-12-12-12-10--10-10-10-10-9--9-9-9-9-|
-----------------------------------------|
--10-10-10-10--8---8--8--8--8-7--7-7-7-7-|
-----------------------------------------|


  E  S S S S E  S S S S E  S S    S S E  S S S S E  S S S S E   
-------------------------------|-------------------------------|
-------------------------------|-------------------------------|
--5--5-5-5-5-5--5-5-5-5-7--7-7-|--7-7-7--7-7-7-7-9--9-9-9-9-9--|
-------------------------------|-------------------------------|
--3--3-3-3-3-3--3-3-3-3-5--5-5-|--5-5-5--5-5-5-5-7--7-7-7-7-7--|
-------------------------------|-------------------------------|


  S S S S E  S S S S E  S S S S     E   S  S  S  S  E   S  S  S  S  E   S  S  
--------------------------------|--------------------------------------------|
--------------------------------|--------------------------------------------|
--9-9-9-9-9--9-9-9-9-9--9-9-9-9-|--12--12-12-12-12-12--12-12-12-12-10--10-10-|
--------------------------------|--------------------------------------------|
--7-7-7-7-7--7-7-7-7-7--7-7-7-7-|--10--10-10-10-10-10--10-10-10-10--8---8--8-|
--------------------------------|--------------------------------------------|


   S  S E  S S S S  E   S  S  S  S  E      S  S  S  S  E   S  S  S  S E  S S S S  
---------------------------------------|-----------------------------------------|
---------------------------------------|-----------------------------------------|
--10-10-9--9-9-9-9-12--12-12-12-12-12--|--12-12-12-12-10--10-10-10-10-9--9-9-9-9-|
---------------------------------------|-----------------------------------------|
---8--8-7--7-7-7-7-10--10-10-10-10-10--|--10-10-10-10--8---8--8--8--8-7--7-7-7-7-|
---------------------------------------|-----------------------------------------|


  E  S S S S E  S S S S E  S S    S S E  S S S S E  S S S S E   
-------------------------------|-------------------------------|
-------------------------------|-------------------------------|
--5--5-5-5-5-5--5-5-5-5-7--7-7-|--7-7-7--7-7-7-7-9--9-9-9-9-9--|
-------------------------------|-------------------------------|
--3--3-3-3-3-3--3-3-3-3-5--5-5-|--5-5-5--5-5-5-5-7--7-7-7-7-7--|
-------------------------------|-------------------------------|


  S S S S E  S S S S E  S S S S       
--------------------------------|
--------------------------------|
--9-9-9-9-9--9-9-9-9-9--9-9-9-9-|
--------------------------------|
--7-7-7-7-7--7-7-7-7-7--7-7-7-7-|
--------------------------------|

BRIDGE
  Q    H        Q       H        H        
---------------------|--------------------|
---------------------|--------------------|
---------------------|-----------2--------|
--3----L--------5----|--L--------2--------|
--3----L--------5----|--L--------0--------|
--1----L--------3----|--L-----------------|
                                                     PM PM PM PM PM PM PM PM  
  W                   Q    H        Q       H        S  S  S  S  S  S  S  S   
-------------------|---------------------|-----------------------------------|
-------------------|---------------------|-----------------------------------|
--L----------------|---------------------|-----------------------------------|
--L----------------|--3----L--------5----|--L--------2--2--2--2--2--2--2--2--|
--L----------------|--3----L--------5----|--L--------0--0--0--0--0--0--0--0--|
-------------------|--1----L--------3----|--L--------------------------------|


  PM PM PM PM PM PM PM PM PM PM                                      
  S  S  S  S  S  S  S  S  S  S  E  Q       E  S E.  E  E  E  E  S S  
----------------------------------------|---------------------------|
----------------------------------------|---------------------------|
--------------------------------2-------|---------------------------|
--2--2--2--2--2--2--2--2--2--2--2-------|--3--3-3---3--------5--5-5-|
--0--0--0--0--0--0--0--0--0--0--0-------|--3--3-3---3--------5--5-5-|
----------------------------------------|--1--1-1---1--------3--3-3-|


  E  E  E  E  E  E  E  E     E  E  E  E  E  E  E  E     E  S E.  E  E  E  E  S S  
--------------------------|--------------------------|---------------------------|
--------------------------|--------------------------|---------------------------|
--------------2--2--2--2--|--2--2--2--2--2--2--2--2--|---------------------------|
--L--5--------2--2--2--2--|--2--2--2--2--2--2--2--2--|--3--3-3---3--------5--5-5-|
--L--5--------0--0--0--0--|--0--0--0--0--0--0--0--0--|--3--3-3---3--------5--5-5-|
--L--3--------------------|--------------------------|--1--1-1---1--------3--3-3-|


  E  E  E  E  E  E  E  E     E  E  E  E  E  E  E  E     E  S E.  E  E  E  E  S S  
--------------------------|--------------------------|---------------------------|
--------------------------|--------------------------|---------------------------|
--------------2--2--2--2--|--2--2--2--2--2--2--2--2--|---------------------------|
--L--5--------2--2--2--2--|--2--2--2--2--2--2--2--2--|--3--3-3---3--------5--5-5-|
--L--5--------0--0--0--0--|--0--0--0--0--0--0--0--0--|--3--3-3---3--------5--5-5-|
--L--3--------------------|--------------------------|--1--1-1---1--------3--3-3-|


  E  E  E  E  E  E  E  E     E  E  E  E  E  E  E  E     E  S E.  E  E  E  E  S S  
--------------------------|--------------------------|---------------------------|
--------------------------|--------------------------|---------------------------|
--------------2--2--2--2--|--2--2--2--2--2--2--2--2--|---------------------------|
--L--5--------2--2--2--2--|--2--2--2--2--2--2--2--2--|--3--3-3---3--------5--5-5-|
--L--5--------0--0--0--0--|--0--0--0--0--0--0--0--0--|--3--3-3---3--------5--5-5-|
--L--3--------------------|--------------------------|--1--1-1---1--------3--3-3-|


              PM PM PM PM PM PM PM PM    PM PM PM PM PM PM PM PM PM PM          
  E  E  E  E  S  S  S  S  S  S  S  S     S  S  S  S  S  S  S  S  S  S  E  Q     
--------------------------------------|----------------------------------------|
--------------------------------------|----------------------------------------|
--------------------------------------|--------------------------------2-------|
--L--5--------2--2--2--2--2--2--2--2--|--2--2--2--2--2--2--2--2--2--2--2-------|
--L--5--------0--0--0--0--0--0--0--0--|--0--0--0--0--0--0--0--0--0--0--0-------|
--L--3--------------------------------|----------------------------------------|

CHORUS
   E   S  S  S  S  E   S  S  S  S  E   S  S     S  S E  S S S S  E   S  S  S  S  E   
--------------------------------------------|---------------------------------------|
--------------------------------------------|---------------------------------------|
--12--12-12-12-12-12--12-12-12-12-10--10-10-|--10-10-9--9-9-9-9-12--12-12-12-12-12--|
--------------------------------------------|---------------------------------------|
--10--10-10-10-10-10--10-10-10-10--8---8--8-|---8--8-7--7-7-7-7-10--10-10-10-10-10--|
--------------------------------------------|---------------------------------------|


   S  S  S  S  E   S  S  S  S E  S S S S    E  S S S S E  S S S S E  S S  
-----------------------------------------|-------------------------------|
-----------------------------------------|-------------------------------|
--12-12-12-12-10--10-10-10-10-9--9-9-9-9-|--5--5-5-5-5-5--5-5-5-5-7--7-7-|
-----------------------------------------|-------------------------------|
--10-10-10-10--8---8--8--8--8-7--7-7-7-7-|--3--3-3-3-3-3--3-3-3-3-5--5-5-|
-----------------------------------------|-------------------------------|


  S S E  S S S S E  S S S S E     S S S S E  S S S S E  S S S S  
-------------------------------|--------------------------------|
-------------------------------|--------------------------------|
--7-7-7--7-7-7-7-9--9-9-9-9-9--|--9-9-9-9-9--9-9-9-9-9--9-9-9-9-|
-------------------------------|--------------------------------|
--5-5-5--5-5-5-5-7--7-7-7-7-7--|--7-7-7-7-7--7-7-7-7-7--7-7-7-7-|
-------------------------------|--------------------------------|


   E   S  S  S  S  E   S  S  S  S  E   S  S     S  S E  S S S S  E   S  S  S  S  E   
--------------------------------------------|---------------------------------------|
--------------------------------------------|---------------------------------------|
--12--12-12-12-12-12--12-12-12-12-10--10-10-|--10-10-9--9-9-9-9-12--12-12-12-12-12--|
--------------------------------------------|---------------------------------------|
--10--10-10-10-10-10--10-10-10-10--8---8--8-|---8--8-7--7-7-7-7-10--10-10-10-10-10--|
--------------------------------------------|---------------------------------------|


   S  S  S  S  E   S  S  S  S E  S S S S    E  S S S S E  S S S S E  S S  
-----------------------------------------|-------------------------------|
-----------------------------------------|-------------------------------|
--12-12-12-12-10--10-10-10-10-9--9-9-9-9-|--5--5-5-5-5-5--5-5-5-5-7--7-7-|
-----------------------------------------|-------------------------------|
--10-10-10-10--8---8--8--8--8-7--7-7-7-7-|--3--3-3-3-3-3--3-3-3-3-5--5-5-|
-----------------------------------------|-------------------------------|


  S S E  S S S S E  S S S S E     S S S S E  S S S S E  S S S S  
-------------------------------|--------------------------------|
-------------------------------|--------------------------------|
--7-7-7--7-7-7-7-9--9-9-9-9-9--|--9-9-9-9-9--9-9-9-9-9--9-9-9-9-|
-------------------------------|--------------------------------|
--5-5-5--5-5-5-5-7--7-7-7-7-7--|--7-7-7-7-7--7-7-7-7-7--7-7-7-7-|
-------------------------------|--------------------------------|


   E   S  S  S  S  E   S  S  S  S  E   S  S     S  S E  S S S S  E   S  S  S  S  E   
--------------------------------------------|---------------------------------------|
--------------------------------------------|---------------------------------------|
--12--12-12-12-12-12--12-12-12-12-10--10-10-|--10-10-9--9-9-9-9-12--12-12-12-12-12--|
--------------------------------------------|---------------------------------------|
--10--10-10-10-10-10--10-10-10-10--8---8--8-|---8--8-7--7-7-7-7-10--10-10-10-10-10--|
--------------------------------------------|---------------------------------------|


   S  S  S  S  E   S  S  S  S E  S S S S    E  S S S S E  S S S S E  S S  
-----------------------------------------|-------------------------------|
-----------------------------------------|-------------------------------|
--12-12-12-12-10--10-10-10-10-9--9-9-9-9-|--5--5-5-5-5-5--5-5-5-5-7--7-7-|
-----------------------------------------|-------------------------------|
--10-10-10-10--8---8--8--8--8-7--7-7-7-7-|--3--3-3-3-3-3--3-3-3-3-5--5-5-|
-----------------------------------------|-------------------------------|


  S S E  S S S S E  S S S S E     S S S S E  S S S S E  S S S S  
-------------------------------|--------------------------------|
-------------------------------|--------------------------------|
--7-7-7--7-7-7-7-9--9-9-9-9-9--|--9-9-9-9-9--9-9-9-9-9--9-9-9-9-|
-------------------------------|--------------------------------|
--5-5-5--5-5-5-5-7--7-7-7-7-7--|--7-7-7-7-7--7-7-7-7-7--7-7-7-7-|
-------------------------------|--------------------------------|


   E   S  S  S  S  E   S  S  S  S  E   S  S     S  S E  S S S S  E   S  S  S  S  E   
--------------------------------------------|---------------------------------------|
--------------------------------------------|---------------------------------------|
--12--12-12-12-12-12--12-12-12-12-10--10-10-|--10-10-9--9-9-9-9-12--12-12-12-12-12--|
--------------------------------------------|---------------------------------------|
--10--10-10-10-10-10--10-10-10-10--8---8--8-|---8--8-7--7-7-7-7-10--10-10-10-10-10--|
--------------------------------------------|---------------------------------------|


   S  S  S  S  E   S  S  S  S E  S S S S    E  S S S S E  S S S S E  S S  
-----------------------------------------|-------------------------------|
-----------------------------------------|-------------------------------|
--12-12-12-12-10--10-10-10-10-9--9-9-9-9-|--5--5-5-5-5-5--5-5-5-5-7--7-7-|
-----------------------------------------|-------------------------------|
--10-10-10-10--8---8--8--8--8-7--7-7-7-7-|--3--3-3-3-3-3--3-3-3-3-5--5-5-|
-----------------------------------------|-------------------------------|


  S S E  S S S S E  Q    E            
----------------------------|-------||
----------------------------|-------||
--7-7-7--7-7-7-7-9--L----L--|-------||
----------------------------|-------||
--5-5-5--5-5-5-5-7--L----L--|-------||
----------------------------|-------||


Duration Legend
---------------
W - whole
H - half
Q - quarter
E - 8th
S - 16th
T - 32nd
X - 64th
. - note dotted

Tablature Legend
----------------
L - tied note
x - dead note
Добавлено: 06.03.2012
Другие материалы по этой песне:

Страница создана 06.03.2012
http://primanota.ru/dropout-year/theres-a-fine-line-chords.htm
Привет, Гость.
Предлагаем пройти революционный курс по гитаре.
Подарок от PrimaNota.Ru, забирай!