PrimaNota.ru - самый крупный в мире бесплатный архив песенных текстов, аккордов, табулатур и нот


Dropout Year - Confetti - таба, видео

Регистрация Запомнить меня
Войти через:  Facebook Google Twitter Vk Yandex Mail.ru

Dropout Year - Confetti - таба, видео

Печатать
Просмотров: 166
Artist: Dropout Year
Album: Best Friends for Never
Song: Confetti
Tabber: aceguitarock
Tuning: Standard

Key:
* = Palm Mute
x = Dead Note
^(#) = Bend so the note matches fret in parenthesis 
///// = Pick Slide
/# = slide

Intro:
Gtr. 1:
|---------------------------------|
|-9-9-9-9101010101212121212121212-|
|-9-9-9-9-9-9-9-9-9-9-9-9-9-9-9-9-| x2
|---------------------------------|
|---------------------------------|
|---------------------------------|

Intro Part 2:
Gtr. 1:
|-----------------------------------|-----------------------------------|
|-9-9-9-9101010101212121212121212---|1212121210101010-9-9-9-9-9-9-9-9---|
|-9-9-9-9-9-9-9-9-9-9-9-9-9-9-9-9-x4|-9-9-9-9-9-9-9-9-9-9-9-9-9-9-9-9-x2|
|-----------------------------------|-----------------------------------|
|-----------------------------------|-----------------------------------|
|-----------------------------------|-----------------------------------|
                                     "…with everything that they said-"

|----------------------------------------------------------|
|-9-9-9-9-9-9-9-91212121212121212-9-9-9-9-9-9-9-9-9--9--9--|
|-9-9-9-9-9-9-9-9-9-9-9-9-9-9-9-9-9-9-9-9-9-9-9-9-9--9--9--|
|----------------------------------------------------------|
|----------------------------------------------------------|
|----------------------------------------------------------|

Gtr. 2: 
|--------------------------------------------------------------|
|--------------------------------------------------------------|
|-------------2-------------6-----2----------------------4-4-4-|
|-2-----4-----2-------------6-----2-----4444444444444444-4-4-4-|
|-2-----4-----0-------------4-----0-----2222222222222222-2-2-2-|
|-0-----2------------------------------------------------------|
                                        ****************

Pre-Verse:
Gtr. 1:
|-----------------------------------|-----------------------------------|
|-9-9-9-9101010101212121212121212---|1212121210101010-9-9-9-9-9-9-9-9---|
|-9-9-9-9-9-9-9-9-9-9-9-9-9-9-9-9-x4|-9-9-9-9-9-9-9-9-9-9-9-9-9-9-9-9-x2|
|-----------------------------------|-----------------------------------|
|-----------------------------------|-----------------------------------|
|-----------------------------------|-----------------------------------|

|-----------------------------------------------------------------|
|10101010-9-9-9-9-7-7-7-7-7-7-7-7-9-9-9-9-9-9-9-91010101010101010-|
|-9-9-9-9-9-9-9-9-9-9-9-9-9-9-9-9-9-9-9-9-9-9-9-9-9-9-9-9-9-9-9-9-|
|-----------------------------------------------------------------|
|-----------------------------------------------------------------|
|-----------------------------------------------------------------|

Gtr. 2:
|----------------------------------------------------------------------|
|----------------------------------------------------------------------|
|------------------------------------2-2-2222-22-2222-2-2-2222-22-2222-|
|-2-2-2222-22-2222--4-4-4444-44-4444-2-2-2222-22-2222-2-2-2222-22-2222-|
|-2-2-2222-22-2222--4-4-4444-44-4444-0-0-0000-00-0000-0-0-0000-00-0000-|
|-0-0-0000-00-0000--2-2-2222-22-2222-----------------------------------|

|---------------------------------------------------------------------|
|---------------------------------------------------------------------|
|-6-6-6666-66-6666-2-2-2222-22-2222-4-4-4444-44-4444-4-4-4444-44-4444-|
|-6-6-6666-66-6666-2-2-2222-22-2222-4-4-4444-44-4444-4-4-4444-44-4444-|
|-4-4-4444-44-4444-0-0-0000-00-0000-2-2-2222-22-2222-2-2-2222-22-2222-|
|---------------------------------------------------------------------|

Verse 1:
Gtr. 1&2:
|---------------------------------------------------------------|
|---------------------------------------------------------------|
|-9-------------------------------------------------------------|
|-9----------------------------------------------------////////-|
|-7----------------------------------------------------////////-|
|-0----------------------------------------------------////////-|

Gtr. 1: (really fast)
|--------------------------------------|
|--9-9-9-9--12121212-9-9-9-9--10101010-|
|-9-9-9-9--9-9-9-9--9-9-9-9--9-9-9-9---|
|--------------------------------------| x2
|--------------------------------------|
|--------------------------------------|

Gtr. 2:
|----------------------------------------------------------------------|
|----------------------------------------------------------------------|
|-9--------------------------------------------------------------------|
|-99999999999999999-6666666666666666-4444444444444444-2222222222222222-|
|-77777777777777777-4444444444444444-2222222222222222-0000000000000000-|
|----------------------------------------------------------------------|
   **************** **************** **************** ****************

Pre-Chorus:
Gtr. 1:
|----------------------------------------------------|
|----------------------------------------------------|
|-9999--8-11-111111-9988-9999--8--13-131313-11111111-|
|-xxxx--x--x--x-x-x-xxxx-xxxx--x---x--x-x-x--x-x-x-x-|
|-7777--6--9--9-9-9-7766-7777--6--11-111111--9-9-9-9-|
|----------------------------------------------------|

|-----------------------------------------------------------|
|-----------------------------------------------------------|
|-13131313-11--14-141414-13131111-13131313-11--9------------|
|--x-x-x-x--x---x--x-x-x--x-x-x-x--x-x-x-x--x--x------------|
|-11111111--9--12-121212-1111-9-9-11111111--9--7------------|
|-----------------------------------------------------------|

Gtr. 2:
|--------------------------------------------------------------------------|
|--------------------------------------------------------------------------|
|-2222--4--6-666-4444-2222--4--9-999-8888-2222--4--6-666-4444-2222--4------|
|-2222--4--6-666-4444-2222--4--9-999-8888-2222--4--6-666-4444-2222--4--2---|
|-0000--2--4-444-2222-0000--2--7-777-6666-0000--2--4-444-2222-0000--2--2---|
|----------------------------------------------------------------------0---|

Verse 2:
Gtr. 1:
|------------------------------|
|------------------------------|
|---------6------4------2------|
|-2-------6------4------2------|
|-2-------4------2------0------|
|-0----------------------------|

Gtr. 2:
|---------------|
|---------------|
|-xx9xx9xx8xx11-|
|-xxxxxxxxxxxxx-| x4
|-xx7xx7xx6xxx9-|
|---------------|

Gtr. 1:
|---------------------------------------------------------|
|---------------------------------------------------------|
|-------------------6---6---6---6---4---4---4---4---2---2-|
|---2---2---2---2---6---6---6---6---4---4---4---4---2---2-|
|-222-222-222-222-444-444-444-444-222-222-222-222-000-000-|
|-000-000-000-000-----------------------------------------|
 
Gtr. 2:
|----------------|
|----------------|
|xx13xx13x11xx14-|
|xxxxxxxxxxxxxxx-| x4
|xx11xx11xx9xx12-|
|----------------|

Interlude: (not as fast as you think)
|-12-0-11-0---0---0-|    |---0-9-0-11-0-12----|
|-----------12--10--|    |-12-----------------|
|-------------------|    |--------------------|
|-------------------| x3 |--------------------|
|-------------------|    |--------------------|
|-------------------|    |--------------------|
 
Chorus:
Gtr. 1:
|------------------|    |------------xxxx-|
|-5544000775500044-| x3 |-5544007755-xxxx-|
|------------------|    |------------xxxx-|
|------------------|    |------------xxxx-|
|------------------|    |------------xxxx-|
|------------------|    |------------xxxx-|

|------------------|    |---------------------------------|
|-5544000775500044-| x2 |-5-4-0-5-5-4-0---4-4-4-5-5-5-7-7-|
|------------------|    |---------------------------------|
|------------------|    |---------------------------------|
|------------------|    |---------------------------------|
|------------------|    |---------------------------------|

Gtr. 2:
|----------------------------------------------------------------xxxx-|
|----------------------------------------------------------------xxxx-|
|------------------2-2-2222-22-2222-6-6-666-4-44-444-2-2-2222-22-xxxx-|
|-2-2-2222-22-2222-2-2-2222-22-2222-6-6-666-4-44-444-2-2-2222-22-xxxx-|
|-2-2-2222-22-2222-0-0-0000-00-0000-4-4-444-2-22-222-0-0-0000-00-xxxx-|
|-0-0-0000-00-0000-----------------------------------------------xxxx-|

|-----------------------------------------------------------------|
|-----------------------------------------------------------------|
|------------------2-2-2222-22-2222-6-6----4-4----2-2-2-2-4-4-4-4-|
|-2-2-2222-22-2222-2-2-2222-22-2222-6-6----4-4----2-2-2-2-4-4-4-4-|
|-2-2-2222-22-2222-0-0-0000-00-0000-4-4----2-2----0-0-0-0-2-2-2-2-|
|-0-0-0000-00-0000------------------------------------------------|

Intermission: 
Gtr. 1: Clean
A B C# E x2

Gtr. 2: (on guitar 1's 2nd time)
|--------------------------------------|
|--------------------------------------|
|-9---11--9/8/6-/4--9--11--13--14--16--|
|-x----x--x-x-x--x--x---x---x---x---x--|
|-7----9--7/6/4-/2--7---9--11--12--14--|
|--------------------------------------|

Solo:
Gtr. 1:
|-------------------------------------4-4------4-4------------------------------|
|-----4455-----4455-7-7-4455-7-7-4455-----4455-----4455-77-4455-0-5-0-4-0-2-0-0-|
|-4-4------4-4------------------------------------------------------------------|
|-------------------------------------------------------------------------------| x2
|-------------------------------------------------------------------------------|
|-------------------------------------------------------------------------------|

Gtr. 2: (On Guitar 1's second time)
|-----------------------------------------7-7------7-7------------------------------|
|-5-5-7799-5-5-7799-10-10-7799-10-10-7799-----7799-----7799-10-10-9977-10-10-997755-|
|-----------------------------------------------------------------------------------|
|-----------------------------------------------------------------------------------|
|-----------------------------------------------------------------------------------|
|-----------------------------------------------------------------------------------|

Gtr. 3:
|---------------------------------------------------------------------|
|---------------------------------------------------------------------|
|-2-2-2222-22-2222-4-4-4444-44-4444-6-6-6666-66-6666-9-9-9999-99-9999-|
|-2-2-2222-22-2222-4-4-4444-44-4444-6-6-6666-66-6666-9-9-9999-99-9999-| x2
|-0-0-0000-00-0000-2-2-2222-22-2222-4-4-4444-44-4444-7-7-7777-77-7777-|
|---------------------------------------------------------------------|

Gtr. 1:
|-11-0-12-0-14-0-12-0-|     |-11-0-12-0-14----|
|---------------------|     |-----------------|
|---------------------|     |-----------------|
|---------------------| x3  |-----------------|
|---------------------|     |-----------------|
|---------------------|     |-----------------|

Gtr. 2:
|14-0-16-0-17-0-16-0-14-0-16-0-17----|
|------------------------------------|
|------------------------------------|
|------------------------------------| 
|------------------------------------|
|------------------------------------|

Gtr. 3:
|-------------------------------------|
|-------------------------------------|
|-2-----------------------------------|
|-2-----------------------------------|
|-0-----------------------------------|
|-------------------------------------|

Chorus:
Gtr. 1:
|------------------|    |------------xxxx-|
|-5544000775500044-| x3 |-5544007755-xxxx-|
|------------------|    |------------xxxx-|
|------------------|    |------------xxxx-|
|------------------|    |------------xxxx-|
|------------------|    |------------xxxx-|

|------------------|    |---------------------------------|
|-5544000775500044-| x2 |-5-4-0-5-5-4-0---4-4-4-5-5-5-7-7-|
|------------------|    |---------------------------------|
|------------------|    |---------------------------------|
|------------------|    |---------------------------------|
|------------------|    |---------------------------------|

Gtr. 2: (when guitar two gets to the part directly above this)
|-4-2-0--5-4-0-0-2-4-2-0--5-4-0-0-2-4-2-0-4-4-2-0---2-2-2-4-4-4-5-5-|
|-------------------------------------------------------------------|
|-------------------------------------------------------------------|
|-------------------------------------------------------------------|
|-------------------------------------------------------------------|
|-------------------------------------------------------------------|
                                   "Night she lost sight…"
Gtr. 3:
|----------------------------------------------------------------xxxx-|
|----------------------------------------------------------------xxxx-|
|------------------2-2-2222-22-2222-6-6-666-4-44-444-2-2-2222-22-xxxx-|
|-2-2-2222-22-2222-2-2-2222-22-2222-6-6-666-4-44-444-2-2-2222-22-xxxx-|
|-2-2-2222-22-2222-0-0-0000-00-0000-4-4-444-2-22-222-0-0-0000-00-xxxx-|
|-0-0-0000-00-0000-----------------------------------------------xxxx-|

|-----------------------------------------------------------------|
|-----------------------------------------------------------------|
|------------------2-2-2222-22-2222-6-6----4-4----2-2-2-2-4-4-4-4-|
|-2-2-2222-22-2222-2-2-2222-22-2222-6-6----4-4----2-2-2-2-4-4-4-4-|
|-2-2-2222-22-2222-0-0-0000-00-0000-4-4----2-2----0-0-0-0-2-2-2-2-|
|-0-0-0000-00-0000------------------------------------------------|


Gtr. 1:
|-----------------------------------|-----------------------------------|
|-9-9-9-9101010101212121212121212---|1212121210101010-9-9-9-9-9-9-9-9---|
|-9-9-9-9-9-9-9-9-9-9-9-9-9-9-9-9-x4|-9-9-9-9-9-9-9-9-9-9-9-9-9-9-9-9-x2|
|-----------------------------------|-----------------------------------|
|-----------------------------------|-----------------------------------|
|-----------------------------------|-----------------------------------|

|-----------------------------------------------------------------|
|10101010-9-9-9-9-7-7-7-7-7-7-7-7-9-9-9-9-9-9-9-910-10-10--9------|
|-9-9-9-9-9-9-9-9-9-9-9-9-9-9-9-9-9-9-9-9-9-9-9-9-9--9--9--9------|
|-----------------------------------------------------------------|
|-----------------------------------------------------------------|
|-----------------------------------------------------------------|

Gtr. 2:
|-----------------------------------------------------------------|
|-----------------------------------------------------------------|
|---------------------------------2-2-2-2-2-2-2-2-2-2-2-2-2-2-2-2-|
|-2-2-2-2-2-2-2-2-4-4-4-4-4-4-4-4-2-2-2-2-2-2-2-2-2-2-2-2-2-2-2-2-|
|-2-2-2-2-2-2-2-2-4-4-4-4-4-4-4-4-0-0-0-0-0-0-0-0-0-0-0-0-0-0-0-0-|
|-0-0-0-0-0-0-0-0-2-2-2-2-2-2-2-2---------------------------------|

|------------------------------------------------------------------------|
|------------------------------------------------------------------------|
|-6-6-6-6-6-6-6-6-2-2-2-2-2-2-2-2-4-4-4-4-4-4-4-4-4-4-4-4-4--4--4--------|
|-6-6-6-6-6-6-6-6-2-2-2-2-2-2-2-2-4-4-4-4-4-4-4-4-4-4-4-4-4--4--4--2-----|
|-4-4-4-4-4-4-4-4-0-0-0-0-0-0-0-0-2-2-2-2-2-2-2-2-2-2-2-2-2--2--2--2-----|
|------------------------------------------------------------------0-----|

Lyrics:
As she tries to maintain her innocence
It's her word against theirs 
With everything that they've said
They've got her running from the few left that care

Rumors consume her
From the edge of her bed, 
Out of the lips of her friends 
And on the night before behind closed doors, 
Her clothes were spread on the bedroom floor.

She's got some secrets she hoped they'd keep keeping 
Locked tightly behind closed doors 
She's got some secrets she hoped they'd keep keeping 
But those secrets aren't hers anymore.

She's the talk of the town 
Since word got out that she's been around
And then her friends left her for dead and said 
"It's nothing personal we've got an image to protect"

She wakes up to the resounding sound of silence 
She lost every friend she thought she could confide in

Hormones raging, her heartbeat's racing 
He slips her a drink and she slips in to bed 
Hormones raging, her heartbeat's racing 
That night she lost sight of what's wrong and what's right

She dug her own grave 
As her friends dished the dirt 
She'd never say 
But that hurt her the worst
To be betrayed was the last thing she thought would come first.

Hormones raging, her heartbeat's racing 
He slips her a drink and she slips in to bed 
Hormones raging, her heartbeat's racing 
That night she lost sight of what's wrong and what's right

As she tries to maintain her innocence
It's her word against theirs 
With everything that they've said
They've got her running from the few left that care

Добавлено: 23.03.2012
Другие материалы по этой песне:
  • Аккорды и текст

Страница создана 23.03.2012
http://primanota.ru/dropout-year/confetti-chords.htm
Привет, Гость.
Предлагаем пройти революционный курс по гитаре.
Подарок от PrimaNota.Ru, забирай!