PrimaNota.ru - самый крупный в мире бесплатный архив песенных текстов, аккордов, табулатур и нот


Dropout Year - Breakin Bones In Abc Order - текст песни, таба, видео

Регистрация Запомнить меня
Войти через:  Facebook Google Twitter Vk Yandex Mail.ru

Dropout Year - Breakin Bones In Abc Order - текст песни, таба, видео

Печатать
Просмотров: 150
Уроки эстрадного вокала в Санкт-Петербурге
-------------------------------------------------------------------------------
                             Breakin' Bones In ABC Order - Dropout Year
-------------------------------------------------------------------------------
Tabbed by:TChun321
Email:TChun321@yahoo.com

Tuning Standard dadgbe
Dropout Year is an outstanding band that deserves to be known.
This song is an outstanding catchy song. Just a bit difficult to play.

------Tab Fixed*------

Intro         This is so...       romantic
|-----------------------------------------------------------------------------|
|-----------------------------------------------------------------------------|
|-4-4-4-4-4-4-3-3---------------------------------4-4-4-4-4-4-3-3------------|
|-4-4-4-4-4-4-3-3-----6-6-6-6-6-6-4-4-4-4-4-4-2-2-4-4-4-4-4-4-3-3-------------|
|-2-2-2-2-2-2-1-1-x2--6-6-6-6-6-6-4-4-4-4-4-4-2-2-2-2-2-2-2-2-1-1-------------|
|---------------------6-6-6-6-6-6-4-4-4-4-4-4-2-2----------------------------|
                                                                You did my Misery,.....
|------------------------------------------------------------------------------|
|------------------------------------------------------------------------------|
|-8-8-8-8-8-8-6-6----------------------------*-*----*-*----*-*---*--*----------|
|--------------------6-6-6-6-6-6-4-4-4-4-4-4-2-2-2-2-2-2-2-2-2-2-2-2-----------|
|-6-6-6-6-6-6-4-4----6-6-6-6-6-6-4-4-4-4-4-4-2-2-2-2-2-2-2-2-2-2-2-2------------|
|--------------------6-6-6-6-6-6-4-4-4-4-4-4-2-2-2-2-2-2-2-2-2-2-2-2-----------|
                                     This is why im so happy....
|-------------------------------------------------------------------------------|
|-------------------------------------------------------------------------------|
|--*-*----*-*-------*-*----*-*--------*-*----*-*--------------------------------|
|--4-4-4-4-4-4-----1-1-1-1-1-1------2-2-2-2-2-2---------------------------------|
|--4-4-4-4-4-4 x2--1-1-1-1-1-1-x2---2-2-2-2-2-2-x2------2--1--------------------|
|--4-4-4-4-4-4-----1-1-1-1-1-1------2-2-2-2-2-2---------------------------------|

Misery...
|-----------------------------------------------------------------------------|
|-----------------------------------------------------------------------------|
|-----------------------------------------------------------------------------|
|--2-2-2-2-2-2-4-4-4-4-4-4-1-1-1-1-1-1-2-2-2-2-2-2----------------------------|
|--2-2-2-2-2-2-4-4-4-4-4-4-1-1-1-1-1-1-2-2-2-2-2-2------2--1------------------|
|--2-2-2-2-2-2-4-4-4-4-4-4-1-1-1-1-1-1-2-2-2-2-2-2----------------------------|
Prechorus
Weathers getting colder....
|---------------------------------------------------------------------------|
|---------------------------------------------------------------------------|
|-----------------4-3-------------------------------------------------------|
|--6-6-2-2-4-4--------4-----------------------------------------------------|
|--6-6-2-2-4-4-----------x2-------------------------------------------------|
|--6-6-2-2-4-4--------------------------------------------------------------|
Chorus
So Lets Get Down....
Guitar 1
|------------------------------------------------------------------|
|------------------------------------------------------------------|
|--4-4-4-4-4-4--------------- 6-6-6-6-6-6--------------------------|
|--4-4-4-4-4-4--2-2-2-2-2-2--6-6-6-6-6-6-2-2-2-2-4-4-4-4-4-4------|
|--2-2-2-2-2-2--2-2-2-2-2-2--4-4-4-4-4-4-2-2-2-2-4-4-4-4-4-4--x2--|
|--2-2-2-2-2-2----------------------------2-2-2-2-4-4-4-4-4-4---------|
Guitar 2 (not totally correct maybe lotsa flaws)
(keep strumming b string while hammering notes)
|-----------------------------------------------------------------------------|
|-07h005h004h005h004h005h00--x3-----------------------------------------------|
|-----------------------------------------------------------------------------|
|-----------------------------------------------------------------------------|
|-----------------------------------------------------------------------------|
|-----------------------------------------------------------------------------|
(after 4 time doing the riff play this)
|-------------------------------------------------------------------------------|
|-09h007h005h004h005h004h005h007h005h004h005h004h005h00-(ring note--------------|
|-------------------------------------------------------------when done---------|
|---------------------------------------------------------------both guitars)---|
|-------------------------------------------------------------------------------|
|-------------------------------------------------------------------------------|

After Chorus
Guitar 1
|---*-*-*---*-*--*--------------------------------------------------------------|
|------------------4-2----------------------------------------------------------|
|---4-3----4-3------------------------------------------------------------------|
|-------4-------4---------x8-------(until not-----------------------------------|
|-------------------------------------palmmuting notes)-------------------------|
|-------------------------------------------------------------------------------|

|------------------------------------------------------------------------------|
|---------------4-2-----------------------------------------------------------|
|--4-3---4-3---------x4----(Ring Note)-----------------------------------------|
|------4-----4-----------------------------------------------------------------|
|------------------------------------------------------------------------------|
|------------------------------------------------------------------------------|

Guitar 2 (ring notes)
|------------------------------------------------------------------------------|
|------------------------------------------------------------------------------|
|------------------------------------------------------------------------------|
|-2------6-----4-----2---------2-----4-----1----2----4-4-4-4-6-6-6-6-----------|
|-2------6-----4-----2---------2-----4-----1----2----4-4-4-4-6-6-6-6-----------|
|-2------6-----4-----2---x2----2-----4-----1----2----4-4-4-4-6-6-6-6-----------|
Both guitars
|-----------------------------------------------------------------------------|
|-----------------------------------------------------------------------------|
|-----------------------------------------------------------------------------|
|--1-1-1-1--2-2-2-2-----------------------------------------------------------|
|--1-1-1-1--2-2-2-2-----------------------------------------------------------|
|--1-1-1-1--2-2-2-2-----------------------------------------------------------|

Chorus

Bridge
|-------------------------------------------------------------------------------|
|-------------------------------------*-*-*--*-*-*--*-*-*-----------------------|
|-*-*--*-*-*-*--*-*-*-*--*-*-*-*--*-*-*4-4-4-4-3-3-3-3-3---------------------|
|-6-6-6-6-6-6-2-2-2-2-2-2-4-4-4-4-4-4-4-4-4-4-3-3-3-3--x2-----------------------|
|-6-6-6-6-6-6-2-2-2-2-2-2-4-4-4-4-4-4-2-2-2-2-1-1-1-1---------------------------|
|-6-6-6-6-6-6-2-2-2-2-2-2-4-4-4-4-4-4-------------------------------------------|

Guitar one (rapidly strum)
|-----------------------------------------------------------------------------|
|12-12----11-11-11-11---------------------------------------------------------|
|-------------------------x8--------------------------------------------------|
|-9--9-x5--8--8--8--8---------------------------------------------------------|
|-----------------------------------------------------------------------------|
|-----------------------------------------------------------------------------|
Guitar 2
|-----------------------------------------------------------------------------|
|-----------------------------------------------------------------------------|
|-------------- 4-4-4-4-4-4--------------8-8-8-8-8-8--------------------------|
|-6-6-6-6-6-6---------------2-2-2-2-2-2--------------4-4-4-4-4-4--------------|
|-6-6-6-6-6-6--2-2-2-2-2-2-2-2-2-2-2-2-6-6-6-6-6-6---4-4-4-4-4-4---------------|
|-6-6-6-6-6-6---------------2-2-2-2-2-2--------------4-4-4-4-4-4--------------|

|-----------------------------------------------------------------------------|
|-----------------------------------------------------------------------------|
|-6-6-6-6-6-6-4-4-4-4-3-3-----------------------------------------------------|
|-------------4-4-4-4-3-3----2-----------------------------------------------|
|-4-4-4-4-4-4-2-2-2-2-1-1----2-(Ring Chord)-x2--------------------------------|
|-----------------------------2-----------------------------------------------|
Low distortion
guitar 1
|-----------------------------------------------------------------------------|
|-----------------------------------------------------------------------------|
|--8-8-8-8-6-6-6-6-4-4-4-4-4-4------------------------------------------------|
|---------------------------------x6------------------------------------------|
|--6-6-6-6-4-4-4-4-2-2-2-2-2-2------------------------------------------------|
|-----------------------------------------------------------------------------|

Guitar 2 (ring chords)
|---------------------------------------------------------------------------|
|---------------------------------------------------------------------------|
|--------*-*--*-*-*-*--*-*-*--*-*-*-------------------------------------------|
|-2------6-6-6-6-6-6-4-4-4-4-4-4--------------------------------------------|
|-2------6-6-6-6-6-6-4-4-4-4-4-4--------------------------------------------|
|-2------6-6-6-6-6-6-4-4-4-4-4-4--------------------------------------------|

Prechorus
Chorus
Outro
Really hard to play. I am about 50 percent correct i think in this)
Do the same in the chorus riff.
|-----------------------------------------------------------------------------|
|-0012h0011h009h007h005h004h005h004h002h---2x---------------------------------|
|------------------------------------------------------4-4--------------------|
|------------------------------------------------------4-4--------------------|
|------------------------------------------------------2-2--------------------|
|-----------------------------------------------------------------------------|

|* Palm mute
| /  slide up
| \  slide down
| h  hammer-on
| p  pull-off
| ~  vibrato
| +  harmonic
| x  Mute note
===============================================================================
Добавлено: 29.03.2012
Другие материалы по этой песне:
  • Аккорды и текст

Страница создана 29.03.2012
http://primanota.ru/dropout-year/breakin-bones-in-abc-order-chords.htm
Привет, Гость.
Предлагаем пройти революционный курс по гитаре.
Подарок от PrimaNota.Ru, забирай!