PrimaNota.ru - самый крупный в мире бесплатный архив песенных текстов, аккордов, табулатур и нот


Dropout Year - Best Friends For Never - таба, видео

Регистрация Запомнить меня
Войти через:  Facebook Google Twitter Vk Yandex Mail.ru

Dropout Year - Best Friends For Never - таба, видео

Печатать
Просмотров: 169
Best Friends for Never
Dropout Year
Tuning=Drop D [DADGBe]

I know that this isn't completely right, but it should be good enough so its 
This is a great song by a great unknown band. If you have any changes/additions email me about it 
chrisbish@pacbell.net and I'll change the tabs accordingly.

Intro

Guitar 1
|----------------------------------------------------------------|
|----------------------------------------------------------------|
|----------------------------------------------------------------|
|-------------2-2-------------4-4-------------2-2----------------|
|-2-2-2-4-4-4-----2-2-2-4-4-4-----2-2-2-4-4-4-----2-2-2-4-4-4-4-4|
|----------------------------------------------------------------|

|---------------------------------------------------------------|
|---------------------------------------------------------------|
|---------------------------------------------------------------|
|--------------2-2-------------4-4-7--7--7--7-7-7-6-6--6--6-6-6-|
|-2-2-2-4-4-4-----2-2-2-4-4-4-----------------------------------|
|---------------------------------------------------------------|

Guitar 2
|-----------------------------------------------------------------|
|-----------------------------------------------------------------|
|-----------------------------------------------------------------|
|-0-0-0-0-0-0-0-0-2-2-2-2-2-2-2-2-4-4-4-4-4-4-4-4-7-7-7-7-7-7-7-7-| (x2)
|-0-0-0-0-0-0-0-0-2-2-2-2-2-2-2-2-4-4-4-4-4-4-4-4-7-7-7-7-7-7-7-7-|
|-0-0-0-0-0-0-0-0-2-2-2-2-2-2-2-2-4-4-4-4-4-4-4-4-7-7-7-7-7-7-7-7-|

Play the Intro twice.

Verse

Guitar 1
|-----------------------------------------------------------------|
|-----------------------------------------------------------------|
|-----------------------------------------------------------------|
|---0---0---0---0---4---4---4---4---0---0---0---0---4---4---4---4-|
|---0---0---0---0---4---4---4---4---0---0---0---0---4---4---4---4-|
|-0-0-0-0-0-0-0-0-4-4-4-4-4-4-4-4-0-0-0-0-0-0-0-0-4-4-4-4-4-4-4-4-|

|------------------------------------------------------------------|
|------------------------------------------------------------------|
|------------------------------------------------------------------|
|---x-x-7---x-x-7---x-x-6---x-x-4---x-x-7---x-x-7---x-x-6---x-x-2--|  (x2)
|------------------------------------------------------------------|
|------------------------------------------------------------------|

Guitar 2
|-----------------------------------------------------------------------|
|-----------------------------------------------------------------------|
|-----------------------------------------------------------------------|
|-0 --------------------------------------------------------------------|
|-0 --------------------------------------------------------------------|
|-0---------------------------------------------------------------------|
                                                                                         
                    ^pick slide
|-----------------------------------------------------------------|
|-----------------------------------------------------------------|
|-----------------------------------------------------------------|
|-0-0-0---0-0-0---4-4-4---4-4-4---0-0-0---0-0-0---4-4-4---4-4-4---|  (x2)
|-0-0-0---0-0-0---4-4-4---4-4-4---0-0-0---0-0-0---4-4-4---4-4-4---|
|-0-0-0---0-0-0---4-4-4---4-4-4---0-0-0---0-0-0---4-4-4---4-4-4---|

Prechorus

Guitar 1
|--------------------------------------------------------------------|
|--------------------------------------------------------------------|
|--------------------------------------------------------------------|
|-2--------------------------------0---------------------------------|
|--------------------------------------------------------------------|
|--------------------------------------------------------------------|

Guitar 2
|--------------------------------------------------------------------|
|--------------------------------------------------------------------|
|--------------------------------------------------------------------|
|-2--------------------------------0---------------------------------|
|-2--------------------------------0---------------------------------|
|-2--------------------------------0---------------------------------|

Chorus

Guitar 1
|-----------------------------------------------------------------|
|-----------------------------------------------------------------|
|-----------------------------------------------------------------|
|-7-7-7-7-7-7-7-7-7-7-7-7-7-7-7-7-6-6-6-6-6-6-6-6-6-6-6-6-6-6-6-6-|
|-7-7-7-7-7-7-7-7-7-7-7-7-7-7-7-7-6-6-6-6-6-6-6-6-6-6-6-6-6-6-6-6-|
|-7-7-7-7-7-7-7-7-7-7-7-7-7-7-7-7-6-6-6-6-6-6-6-6-6-6-6-6-6-6-6-6-|

|-----------------------------------------------------------------|
|-----------------------------------------------------------------|
|-7-7-7-7-7-7-7-7-7-7-7-7-7-7-7-7---------------------------------|
|-7-7-7-7-7-7-7-7-7-7-7-7-7-7-7-7-4-4-4-4-4-4-4-4-2-2-2-2-2-2-2-2-|
|-5-5-5-5-5-5-5-5-5-5-5-5-5-5-5-5-4-4-4-4-4-4-4-4-2-2-2-2-2-2-2-2-|
|---------------------------------4-4-4-4-4-4-4-4-2-2-2-2-2-2-2-2-|

Guitar 2
|----------------------------------------------------------------------|
|----------------------------------------------------------------------|
|----------------------------------------------------------------------|
|-7-7-7-7-7-7-7-7-7-7-7-7-7-7-7-7-6-6-6-6-6-6-6-6-6-6-6-6-6-6-6-6------|
|-7-7-7-7-7-7-7-7-7-7-7-7-7-7-7-7-6-6-6-6-6-6-6-6-6-6-6-6-6-6-6-6------|
|-7-7-7-7-7-7-7-7-7-7-7-7-7-7-7-7-6-6-6-6-6-6-6-6-6-6-6-6-6-6-6-6------|

|-----------------------------------------------------------------|
|-----------------------------------------------------------------|
|-----------------------------------------------------------------|
|-0-0-0-0-0-0-0-0-0-0-0-0-0-0-0-0-4-4-4-4-4-4-4-4-2-2-2-2-2-2-2-2-|
|-0-0-0-0-0-0-0-0-0-0-0-0-0-0-0-0-4-4-4-4-4-4-4-4-2-2-2-2-2-2-2-2-|
|-0-0-0-0-0-0-0-0-0-0-0-0-0-0-0-0-4-4-4-4-4-4-4-4-2-2-2-2-2-2-2-2-|

Bridge

Guitar 1&2
|----------------------------------------------------------------|
|----------------------------------------------------------------|
|----------------------------------------------------------------|
|-0----------------7----------------2-----------------4--------2-|
|-0----------------7----------------2-----------------4--------2-|
|-0----------------7----------------2-----------------4--------2-|

|-------------------------------------------------------------|
|-------------------------------------------------------------|
|-------------------------------------------------------------|
|-0-0---0-0---0---7-7---7-7---7---2-2---2-2---2---4-4-4-2-2-2-|
|-0-0---0-0---0---7-7---7-7---7---2-2---2-2---2---4-4-4-2-2-2-|
|-0-0---0-0---0---7-7---7-7---7---2-2---2-2---2---4-4-4-2-2-2-|

Play twice, with a small variation the second time.

Intro
Verse
Prechorus
Chorus
Intro
Verse
Prechorus
Chorus
Bridge
Chorus
Добавлено: 15.04.2012
Другие материалы по этой песне:
  • Аккорды и текст

Страница создана 15.04.2012
http://primanota.ru/dropout-year/best-friends-for-never-chords.htm
Привет, Гость.
Предлагаем пройти революционный курс по гитаре.
Подарок от PrimaNota.Ru, забирай!