PrimaNota.ru - самый крупный в мире бесплатный архив песенных текстов, аккордов, табулатур и нот


Dropkick Murphys - Pipebomb On Landsdowne - таба, бас-таба, видео

Регистрация Запомнить меня
Войти через:  Facebook Google Twitter Vk Yandex Mail.ru

Dropkick Murphys - Pipebomb On Landsdowne - таба, бас-таба, видео

Печатать
Просмотров: 241
As recorded by Dropkick Murphys
(From the 1999 Album THE GANG'S ALL HERE)

Transcribed by Skater87
        

Words and Music by Dropkick Murphys (Casey, Barton, Kelly)

Gtr I (E A D G B E) - 'James Lynch'
Gtr II (E A D G B E) - 'Jeff Erner'

 Intro
  Q=200
  N.C.                  F#5        A5         B5         F#5
 4/4
  Gtrs I, II
  W          W          W          W          W          W
|----------|----------|----------|----------|----------|------|
|----------|----------|----------|----------|----------|------|
|----------|----------|----------|-2--------|-4--------|------|
|----------|----------|-4--------|-2--------|-4--------|-4----|
|----------|----------|-4--------|-0--------|-2--------|-4----|
|----------|----------|-2--------|----------|----------|-2----|


  F#5        A5         B5         N.C.
  W          W          W            E  E  E  E  E  E  E  E
|----------|----------|----------|---------------------------|
|----------|----------|----------|---------------------------|
|----------|-2--------|-4--------|-/11-11-11-11-11-11-11-11--|
|-4--------|-2--------|-4--------|--/x--x--x--x--x--x--x--x--|
|-4--------|-0--------|-2--------|--/9--9--9--9--9--9--9--9--|
|-2--------|----------|----------|---------------------------|


   Verse
    F#5               A5                B5                F#5
    E E E E E E E E   E E E E E E E E   E E E E E E E E   E E E E E E E E
||------------------|-----------------|-----------------|------------------||
||o-----------------|-----------------|-----------------|-----------------o||
||------------------|-2-2-2-2-2-2-2-2-|-4-4-4-4-4-4-4-4-|------------------||
||--4-4-4-4-4-4-4-4-|-2-2-2-2-2-2-2-2-|-4-4-4-4-4-4-4-4-|-4-4-4-4-4-4-4-4--||
||o-4-4-4-4-4-4-4-4-|-0-0-0-0-0-0-0-0-|-2-2-2-2-2-2-2-2-|-4-4-4-4-4-4-4-4-o||
||--2-2-2-2-2-2-2-2-|-----------------|-----------------|-2-2-2-2-2-2-2-2--||


 Pre-Chorus
  F#5        E5         F#5        C5       B5 A5
  W          W          W           E E. E. E. E. +E
|----------|----------|----------|--------------------|
|----------|----------|----------|--------------------|
|----------|----------|----------|-/5-5--5--4--2--(2)-|
|-4--------|-2--------|-4--------|-/5-5--5--4--2--(2)-|
|-4--------|-2--------|-4--------|-/3-3--3--2--0--(0)-|
|-2--------|-0--------|-2--------|--------------------|


   Chorus
    F#5               E5                F#5               C5       B5 A5
    E E E E E E E E   E E E E E E E E   E E E E E E E E    E E. E. E. E. +E
||------------------|-----------------|-----------------|---------------------||
||o-----------------|-----------------|-----------------|--------------------o||
||------------------|-----------------|-----------------|-/5-5--5--4--2--(2)--||
||--4-4-4-4-4-4-4-4-|-2-2-2-2-2-2-2-2-|-4-4-4-4-4-4-4-4-|-/5-5--5--4--2--(2)--||
||o-4-4-4-4-4-4-4-4-|-2-2-2-2-2-2-2-2-|-4-4-4-4-4-4-4-4-|-/3-3--3--2--0--(0)-o||
||--2-2-2-2-2-2-2-2-|-0-0-0-0-0-0-0-0-|-2-2-2-2-2-2-2-2-|---------------------||


   Verse
    F#5               A5                B5                F#5
    E E E E E E E E   E E E E E E E E   E E E E E E E E   E E E E E E E E  3x
||------------------|-----------------|-----------------|------------------||
||o-----------------|-----------------|-----------------|-----------------o||
||------------------|-2-2-2-2-2-2-2-2-|-4-4-4-4-4-4-4-4-|------------------||
||--4-4-4-4-4-4-4-4-|-2-2-2-2-2-2-2-2-|-4-4-4-4-4-4-4-4-|-4-4-4-4-4-4-4-4--||
||o-4-4-4-4-4-4-4-4-|-0-0-0-0-0-0-0-0-|-2-2-2-2-2-2-2-2-|-4-4-4-4-4-4-4-4-o||
||--2-2-2-2-2-2-2-2-|-----------------|-----------------|-2-2-2-2-2-2-2-2--||


 Pre-Chorus
  F#5        E5         F#5        C5       B5 A5
  W          W          W           E E. E. E. E. +E
|----------|----------|----------|--------------------|
|----------|----------|----------|--------------------|
|----------|----------|----------|-/5-5--5--4--2--(2)-|
|-4--------|-2--------|-4--------|-/5-5--5--4--2--(2)-|
|-4--------|-2--------|-4--------|-/3-3--3--2--0--(0)-|
|-2--------|-0--------|-2--------|--------------------|


   Chorus
    F#5               E5
    E E E E E E E E   E E E E E E E E
||------------------|-----------------|
||o-----------------|-----------------|
||------------------|-----------------|
||--4-4-4-4-4-4-4-4-|-2-2-2-2-2-2-2-2-|
||o-4-4-4-4-4-4-4-4-|-2-2-2-2-2-2-2-2-|
||--2-2-2-2-2-2-2-2-|-0-0-0-0-0-0-0-0-|


  F#5               C5       B5 A5         F#5
  E E E E E E E E    E E. E. E. E. +E      W
|-----------------|---------------------||------
|-----------------|--------------------o||------
|-----------------|-/5-5--5--4--2--(2)--||------
|-4-4-4-4-4-4-4-4-|-/5-5--5--4--2--(2)--||-4----
|-4-4-4-4-4-4-4-4-|-/3-3--3--2--0--(0)-o||-4----
|-2-2-2-2-2-2-2-2-|---------------------||-2----


 Interlude
  N.C.                  F#5        A5         B5         F#5
  W          W          W          W          W          W
|----------|----------|----------|----------|----------|------|
|----------|----------|----------|----------|----------|------|
|----------|----------|----------|-2--------|-4--------|------|
|----------|----------|-4--------|-2--------|-4--------|-4----|
|----------|----------|-4--------|-0--------|-2--------|-4----|
|----------|----------|-2--------|----------|----------|-2----|


  F#5        A5         B5         N.C.
  W          W          W            E  E  E  E  E  E  E  E
|----------|----------|----------|---------------------------|
|----------|----------|----------|---------------------------|
|----------|-2--------|-4--------|-/11-11-11-11-11-11-11-11--|
|-4--------|-2--------|-4--------|--/x--x--x--x--x--x--x--x--|
|-4--------|-0--------|-2--------|--/9--9--9--9--9--9--9--9--|
|-2--------|----------|----------|---------------------------|


   Verse
    F#5               A5                B5                F#5
    E E E E E E E E   E E E E E E E E   E E E E E E E E   E E E E E E E E
||------------------|-----------------|-----------------|------------------||
||o-----------------|-----------------|-----------------|-----------------o||
||------------------|-2-2-2-2-2-2-2-2-|-4-4-4-4-4-4-4-4-|------------------||
||--4-4-4-4-4-4-4-4-|-2-2-2-2-2-2-2-2-|-4-4-4-4-4-4-4-4-|-4-4-4-4-4-4-4-4--||
||o-4-4-4-4-4-4-4-4-|-0-0-0-0-0-0-0-0-|-2-2-2-2-2-2-2-2-|-4-4-4-4-4-4-4-4-o||
||--2-2-2-2-2-2-2-2-|-----------------|-----------------|-2-2-2-2-2-2-2-2--||


 Pre-Chorus
  F#5        E5         F#5        C5       B5 A5
  W          W          W           E E. E. E. E. +E
|----------|----------|----------|--------------------|
|----------|----------|----------|--------------------|
|----------|----------|----------|-/5-5--5--4--2--(2)-|
|-4--------|-2--------|-4--------|-/5-5--5--4--2--(2)-|
|-4--------|-2--------|-4--------|-/3-3--3--2--0--(0)-|
|-2--------|-0--------|-2--------|--------------------|


   Chorus
    F#5               E5                F#5               C5       B5 A5
    E E E E E E E E   E E E E E E E E   E E E E E E E E    E E. E. E. E. +E
||------------------|-----------------|-----------------|---------------------||
||o-----------------|-----------------|-----------------|--------------------o||
||------------------|-----------------|-----------------|-/5-5--5--4--2--(2)--||
||--4-4-4-4-4-4-4-4-|-2-2-2-2-2-2-2-2-|-4-4-4-4-4-4-4-4-|-/5-5--5--4--2--(2)--||
||o-4-4-4-4-4-4-4-4-|-2-2-2-2-2-2-2-2-|-4-4-4-4-4-4-4-4-|-/3-3--3--2--0--(0)-o||
||--2-2-2-2-2-2-2-2-|-0-0-0-0-0-0-0-0-|-2-2-2-2-2-2-2-2-|---------------------||


 Outro
  C5       B5 A5       C5       B5 A5       F#5        C5 B5 A5 F#5
   E E. E. E. E. +E     E E. E. E. E. +E    W          E. E. E. q..
|--------------------|--------------------|----------|-----------------*|
|--------------------|--------------------|----------|-----------------*|
|-/5-5--5--4--2--(2)-|-/5-5--5--4--2--(2)-|----------|-5--4--2---------*|
|-/5-5--5--4--2--(2)-|-/5-5--5--4--2--(2)-|-4--------|-5--4--2--4------*|
|-/3-3--3--2--0--(0)-|-/3-3--3--2--0--(0)-|-4--------|-3--2--0--4------*|
|--------------------|--------------------|-2--------|----------2------*|



Duration Legend
---------------
W - whole; H - half; Q - quarter; E - 8th; S - 16th; T - 32nd; X - 64th; a - acciaccatura
+ - note tied to previous; . - note dotted; .. - note double dotted
Uncapitalized letters represent notes that are staccato (1/2 duration)
Irregular groupings are notated above the duration line
Duration letters will always appear directly above the note/fret number it represents the
duration for.  Duration letters with no fret number below them represent rests.  Multi-
bar rests are notated in the form Wxn, where n is the number of bars to rest for.  Low
melody durations appear below the staff

Tablature Legend
----------------
 h   - hammer-on
 p   - pull-off
 b   - bend
 pb  - pre-bend
 r   - bend release (if no number after the r, then release immediately)
 /\  - slide into or out of (from/to "nowhere")
 s   - legato slide
 S   - shift slide
 - natural harmonic
[n]  - artificial harmonic
n(n) - tapped harmonic
 ~   - vibrato
 tr  - trill
 T   - tap
 TP  - trem. picking
 PM  - palm muting
\n/  - tremolo bar dip; n = amount to dip
 \n  - tremolo bar down
 n/  - tremolo bar up
/n\  - tremolo bar inverted dip
 =   - hold bend; also acts as connecting device for hammers/pulls
 <> - volume swell (louder/softer)
 x   - on rhythm slash represents muted slash
 o   - on rhythm slash represents single note slash

Misc Legend
-----------
 |  - bar
||  - double bar
||o - repeat start
o|| - repeat end
*|  - double bar (ending)
 :  - bar (freetime)
 $  - Segno
 &  - Coda
Tempo markers -  = BPM(8/16=s8/s16), where s8 = swing 8ths, s16 = swing 16ths

Добавлено: 28.04.2012
Другие материалы по этой песне:

Страница создана 25.02.2012
http://primanota.ru/dropkick-murphys/pipebomb-on-landsdowne-chords.htm
Привет, Гость.
Предлагаем пройти революционный курс по гитаре.
Подарок от PrimaNota.Ru, забирай!