PrimaNota.ru - самый крупный в мире бесплатный архив песенных текстов, аккордов, табулатур и нот


Dropkick Murphys - Nutty boston bruins theme song - таба, видео

Регистрация Запомнить меня
Войти через:  Facebook Google Twitter Vk Yandex Mail.ru

Dropkick Murphys - Nutty boston bruins theme song - таба, видео

Печатать
Просмотров: 69


Tabbed by: Mark Lodder (a guitar freak)
Email: camby_8@hotmail.com

Tuning: regular

H=hammer

NOTE: this song is kinda hard to play if you haven't ever heard it before. However, its just 
one big awesome solo.  ROCK ON    

V1
V2
V3
V4
CH
V2
V5
V6
Ch

VERSE 1
e|-----------------------------------------------------------------------|
B|-----7-5-5-5-7--------7-5-5-5-7--------7-5-5-5-7--------7-5-5-5-7------|twice
G|-----------------------------------------------------------------------|
D|-----------------------------------------------------------------------|
A|-----------------------------------------------------------------------|
E|-----------------------------------------------------------------------|


VERSE 2
e|-----------------------------------------------------------------------|
B|-------5-5-5-5-5----7-7-7-7-7-7-7------9-9--5-5--7-7-------------------|twice
G|-----------------------------------------------------------------------|
D|-----------------------------------------------------------------------|
A|-----------------------------------------------------------------------|
E|-----------------------------------------------------------------------|


VERSE 3
e|-------10-10--12-9-7-5-4-----9--10--9-9--7-7--5-5--4-4--2-2----------------|
B|---------------------------------------------------------------------------|
G|---------------------------------------------------------------------------|
D|---------------------------------------------------------------------------|
A|---------------------------------------------------------------------------|
E|---------------------------------------------------------------------------|

VERSE 4
e|-7-7---5-5---4-4---7-7---5-5---4-4---2-2----9--10--9-9--7-7--5-5--4-4--2-2-|
B|---------------------------------------------------------------------------|
G|---------------------------------------------------------------------------|
D|---------------------------------------------------------------------------|
A|---------------------------------------------------------------------------|
E|---------------------------------------------------------------------------|

CHOURUS
e|---------------------------------------------------------------------------|
B|---------------------------------------------------------------------------|
G|---------------------------------------------------------------------------|
D|--7/--7/--7/--7/--7/---------7/--7/--7/--7/--7/----------------------------|
A|--7/--7/--7/--7/--7/---------7/--7/--7/--7/--7/----------------------------|
E|--5/--5/--5/--5/--5/---------5/--5/--5/--5/--5/----------------------------|

VERSE 5
e|------9-10-12-10-9-7-9-9-5----9-10-12-10-9-7-9-10-9-7-5-4-2----------------|
B|---------------------------------------------------------------------------|
G|---------------------------------------------------------------------------|
D|---------------------------------------------------------------------------|
A|---------------------------------------------------------------------------|
E|---------------------------------------------------------------------------|


VERSE 6 
e|--------------0-h2-h4---0-h2-h4---0-h2-0-2-5-4-----------------------------|
B|---------------------------------------------------------------------------|
G|---------------------------------------------------------------------------|
D|---------------------------------------------------------------------------|
A|---------------------------------------------------------------------------|
E|---------------------------------------------------------------------------|


Добавлено: 27.01.2014
Другие материалы по этой песне:
  • Аккорды и текст

Страница создана 27.01.2014
http://primanota.ru/dropkick-murphys/nutty-boston-bruins-theme-song-chords.htm
Привет, Гость.
Предлагаем пройти революционный курс по гитаре.
Подарок от PrimaNota.Ru, забирай!