PrimaNota.ru - самый крупный в мире бесплатный архив песенных текстов, аккордов, табулатур и нот


Dropkick Murphys - Johnny i hardl knew ya - таба, видео

Регистрация Запомнить меня
Войти через:  Facebook Google Twitter Vk Yandex Mail.ru

Dropkick Murphys - Johnny i hardl knew ya - таба, видео

Печатать
Просмотров: 167
Уроки эстрадного вокала в Санкт-Петербурге


This is what i found online soit just the intro
goes to  tune of the ants go marching in or when johnny comes marching hom
typed up by Sam Kibbey

E----------------------------------------------------
B----------------------------------------------------
G-----------------0------0--------------------------
D-----2--2--2--2--4------4-----2--0-------0------
A--2--------------------------------------2---------
E----------------------------------------------------

E----------------------------------------------------
B----------------------------------------------------
G--------------------0------0--2--4--0--4---------
D-----2--2--2--2--4-----4-------------------------
A--2------------------------------------------------
E----------------------------------------------------

E----------------------------------------------------
B----------------------------------------------------
G--0--4-4-4-4-5-4--2-2-2-2-4-2--0-0-0-0------
D----------------------------------------------424~
A----------------------------------------------------
E----------------------------------------------------

E----------------------------------------------------
B----------------------------------------------------
G-0-4-2-0-2-0-------------------------------------
D-----------------4-5-4-2-4-2-0-2-----0----2B---
A----------------------------------------------------
E----------------------------------------------------

E----------------------------------------------------
B----------------------------------------------------
G----------------------------------------------------
D--0-2-22222--4545--2--0000000----0-----0-22222--454-7-9--5-9
A-------------------------2-----------------0H2----
E----------------------------------------------------
(on a te 2 goes right were its @under the d)

E----------------------------------------------------
B----------------------------------------------------
G----------------------------------------------------
D-5-7-9-9999-10-9--7-7777-9-7-7777-9-7--5-5555-7-5--4-4444--5-7-9-7-5----------------
A----------------------------------------------------
E----------------------------------------------------

E----------------------------------------------------
B----------------------------------------------------
G----------------------------------------------------
D-7-5-4-5-4-2-4-5-4--2-2222222-0-2---------



Добавлено: 15.12.2013
Другие материалы по этой песне:
  • Аккорды и текст

Страница создана 15.12.2013
http://primanota.ru/dropkick-murphys/johnny-i-hardl-knew-ya-chords.htm
Привет, Гость.
Предлагаем пройти революционный курс по гитаре.
Подарок от PrimaNota.Ru, забирай!