PrimaNota.ru - самый крупный в мире бесплатный архив песенных текстов, аккордов, табулатур и нот


Dropkick Murphys - For Boston - текст песни, таба, видео

Регистрация Запомнить меня
Войти через:  Facebook Google Twitter Vk Yandex Mail.ru

Dropkick Murphys - For Boston - текст песни, таба, видео

Печатать
Просмотров: 156
Авторы: T.W. Allen

As recorded by Dropkick Murphys
(From the 2001 Album SING LOUD, SING PROUD!)

Transcribed by Robbie Annese
        


Arranged by Dropkick Murphys

Gtr I (Eb Ab Db Gb Bb Eb) - 'Distortion'
Gtr II (Eb Ab Db Gb Bb Eb) - 'Bagpipe'

 Instrumental Verse
  Q=140
  B     E               E               A       B         E
 1/4   4/4
  Gtr I
   Q     H     Q   Q     H     Q   Q     Q   Q   Q   Q     H     Q   Q
|-----|---------------|---------------|-----------------|-----------------|
|-----|---------------|---------------|-----------------|-----------------|
|-----|--9-----9---9--|--9-----9---9--|-----------------|--9-----9---9----|
|--9--|--9-----9---9--|--9-----9---9--|--7---7---9---9--|--9-----9---9----|
|--9--|--7-----7---7--|--7-----7---7--|--7---7---9---9--|--7-----7---7----|
|--7--|---------------|---------------|--5---5---7---7--|-----------------|
|
| Gtr II
|  Q     H     Q   Q     H     Q   Q     Q   Q   Q   Q     H.        Q
|-----|-12------------|-16----12------|-----14--12--11--|-12--------------|
|-12--|-------12--12--|-----------12--|-14--------------|-----------12----|
|-----|---------------|---------------|-----------------|-----------------|
|-----|---------------|---------------|-----------------|-----------------|
|-----|---------------|---------------|-----------------|-----------------|
|-----|---------------|---------------|-----------------|-----------------|


  B               E                 F#                B
   H     Q   Q     H     Q   Q       H       Q   Q     H     Q   Q
|---------------|-----------------|-----------------|----------------|
|---------------|-----------------|-----------------|----------------|
|---------------|--9-----9---9----|-11------11--11--|----------------|
|--9-----9---9--|--9-----9---9----|-11------11--11--|--9-----9---9---|
|--9-----9---9--|--7-----7---7----|--9-------9---9--|--9-----9---9---|
|--7-----7---7--|-----------------|-----------------|--7-----7---7---|
|
|  H     Q   Q     H     Q   E  E    Q   Q   Q   Q     H.        Q
|-14----16--14--|-12----11--11h12-|-14--12--11------|----------------|
|---------------|-----------------|-------------14--|-12--------12---|
|---------------|-----------------|-----------------|----------------|
|---------------|-----------------|-----------------|----------------|
|---------------|-----------------|-----------------|----------------|
|---------------|-----------------|-----------------|----------------|


  B                       E
   H           Q   Q       H       Q   Q
|-----------------------|-----------------|
|-----------------------|-----------------|
|-----------------------|--9-------9---9--|
|--9-----------9---9----|--9-------9---9--|
|--9-----------9---9----|--7-------7---7--|
|--7-----------7---7----|-----------------|
|
|  E  E  E  E  Q   E  E    Q   Q   Q   Q
|-14-12-14-12-14--16-14-|-12--------------|
|-----------------------|-----12--12--12--|
|-----------------------|-----------------|
|-----------------------|-----------------|
|-----------------------|-----------------|
|-----------------------|-----------------|


  B                       E
   H           Q   Q       H       Q   Q
|-----------------------|------------------|
|-----------------------|------------------|
|-----------------------|--9-------9---9---|
|--9-----------9---9----|--9-------9---9---|
|--9-----------9---9----|--7-------7---7---|
|--7-----------7---7----|------------------|
|
|  E  E  E  E  Q   E  E    Q   Q   Q   Q
|-14-12-14-12-14--16-14-|-12---------------|
|-----------------------|-----12--12--12---|
|-----------------------|------------------|
|-----------------------|------------------|
|-----------------------|------------------|
|-----------------------|------------------|


  A               E                   E       B         E
   H     Q   Q     H       Q   Q       Q   Q   Q   Q     E E E E  E Q.
|---------------|-------------------|-----------------|-------------------|
|---------------|-------------------|-----------------|-------------------|
|---------------|--9-------9---9----|--9---9----------|--9-9-9-9--9-------|
|--7-----7---7--|--9-------9---9----|--9---9---9---9--|--9-9-9-9--9-------|
|--7-----7---7--|--7-------7---7----|--7---7---9---9--|--7-7-7-7--7-------|
|--5-----5---5--|-------------------|----------7---7--|-------------------|
|
|  H     Q   Q     Q   Q   Q   E  E    Q   Q   Q   Q     H        E Q.
|-------12--17--|-16--14--12--12-14-|-16--14--12--11--|-12-------12-------|
|-14------------|-------------------|-----------------|-------------------|
|---------------|-------------------|-----------------|-------------------|
|---------------|-------------------|-----------------|-------------------|
|---------------|-------------------|-----------------|-------------------|
|---------------|-------------------|-----------------|-------------------|


 First Verse
  Q=190
  E                   E
   E Q  E  E Q    E    E Q  E  E Q    E
|-------------------|-------------------|
|-------------------|-------------------|
|--9-9--9--9-9----9-|--9-9--9--9-9----9-|
|--9-9--9--9-9----9-|--9-9--9--9-9----9-|
|--7-7--7--7-7----7-|--7-7--7--7-7----7-|
|-------------------|-------------------|
|
|  H       Q    Q      H       Q    Q
|-12----------------|-16------12--------|
|---------12---12---|--------------12---|
|-------------------|-------------------|
|-------------------|-------------------|
|-------------------|-------------------|
|-------------------|-------------------|


  A         B           E
   E Q    E  E Q    E    E  Q  E E Q    E
|---------------------|--------------------|
|---------------------|--------------------|
|---------------------|--9--9--9-9-9----9--|
|--7-7----7--9-9----9-|--9--9--9-9-9----9--|
|--7-7----7--9-9----9-|--7--7--7-7-7----7--|
|--5-5----5--7-7----7-|--------------------|
|
|  Q    Q    Q    Q      H.           Q
|------14---12---11---|-12-----------------|
|-14------------------|--------------12----|
|---------------------|--------------------|
|---------------------|--------------------|
|---------------------|--------------------|
|---------------------|--------------------|


  B                   E
   E Q  E  E Q    E    E Q  E  E Q     E
|-------------------|--------------------|
|-------------------|--------------------|
|-------------------|--9-9--9--9-9-----9-|
|--9-9--9--9-9----9-|--9-9--9--9-9-----9-|
|--9-9--9--9-9----9-|--7-7--7--7-7-----7-|
|--7-7--7--7-7----7-|--------------------|
|
|  H       Q    Q      H       Q    E  E
|-14------16---14---|-12------11---11h12-|
|-------------------|--------------------|
|-------------------|--------------------|
|-------------------|--------------------|
|-------------------|--------------------|
|-------------------|--------------------|


  F#                        B
   E  Q     E  E  Q     E    E  Q  E E Q    E
|-------------------------|--------------------|
|-------------------------|--------------------|
|-11-11----11-11-11----11-|--------------------|
|-11-11----11-11-11----11-|--9--9--9-9-9----9--|
|--9--9-----9--9--9-----9-|--9--9--9-9-9----9--|
|-------------------------|--7--7--7-7-7----7--|
|
|  Q     Q     Q     Q       H.           Q
|-14----12----11----------|--------------------|
|-------------------14----|-12-----------12----|
|-------------------------|--------------------|
|-------------------------|--------------------|
|-------------------------|--------------------|
|-------------------------|--------------------|


  B                        E
   E  Q     E  E Q     E    E Q    E  E Q    E
|------------------------|---------------------|
|------------------------|---------------------|
|------------------------|--9-9----9--9-9----9-|
|--9--9-----9--9-9-----9-|--9-9----9--9-9----9-|
|--9--9-----9--9-9-----9-|--7-7----7--7-7----7-|
|--7--7-----7--7-7-----7-|---------------------|
|
|  E  E  E  E  Q    E  E    Q    Q    Q    Q
|-14-12-14-12-14---16-14-|-12------------------|
|------------------------|------12---12---12---|
|------------------------|---------------------|
|------------------------|---------------------|
|------------------------|---------------------|
|------------------------|---------------------|


  B                        E
   E  Q     E  E Q     E    E Q    E  E Q    E
|------------------------|----------------------|
|------------------------|----------------------|
|------------------------|--9-9----9--9-9----9--|

|--9--9-----9--9-9-----9-|--9-9----9--9-9----9--|
|--9--9-----9--9-9-----9-|--7-7----7--7-7----7--|
|--7--7-----7--7-7-----7-|----------------------|
|
|  E  E  E  E  Q    E  E    Q    Q    Q    Q
|-14-12-14-12-14---16-14-|-12-------------------|
|------------------------|------12---12---12----|
|------------------------|----------------------|
|------------------------|----------------------|
|------------------------|----------------------|
|------------------------|----------------------|


  A                   E
   E Q  E  E Q    E    E Q    E  E Q     E
|-------------------|----------------------|
|-------------------|----------------------|
|-------------------|--9-9----9--9-9-----9-|
|--7-7--7--7-7----7-|--9-9----9--9-9-----9-|
|--7-7--7--7-7----7-|--7-7----7--7-7-----7-|
|--5-5--5--5-5----5-|----------------------|
|
|  H       Q    Q      Q    Q    Q    E  E
|---------12---17---|-16---14---12---12-14-|
|-14----------------|----------------------|
|-------------------|----------------------|
|-------------------|----------------------|
|-------------------|----------------------|
|-------------------|----------------------|


  E         B           E                  E
   E Q    E  E Q    E    E E E E E E E E     E  E E E q   Q
|---------------------|------------------|--------------------|
|---------------------|------------------|--------------------|
|--9-9----9-----------|--9-9-9-9-9-9-9-9-|---9--9-9-9-9-------|
|--9-9----9--9-9----9-|--9-9-9-9-9-9-9-9-|---9--9-9-9-9-------|
|--7-7----7--9-9----9-|--7-7-7-7-7-7-7-7-|---7--7-7-7-7-------|
|------------7-7----7-|------------------|--------------------|
|
|  Q    Q    Q    Q      W                  +H.           Q
|-16---14---12---11---|-12---------------|-(12)---------------|
|---------------------|------------------|---------------12---|
|---------------------|------------------|--------------------|
|---------------------|------------------|--------------------|
|---------------------|------------------|--------------------|
|---------------------|------------------|--------------------|


 Second Verse
  E                   E
   E Q  E  E Q    E    E Q  E  E Q    E
|-------------------|-------------------|
|-------------------|-------------------|
|--9-9--9--9-9----9-|--9-9--9--9-9----9-|
|--9-9--9--9-9----9-|--9-9--9--9-9----9-|
|--7-7--7--7-7----7-|--7-7--7--7-7----7-|
|-------------------|-------------------|
|
|  H       Q    Q      H       Q    Q
|-12----------------|-16------12--------|
|---------12---12---|--------------12---|
|-------------------|-------------------|
|-------------------|-------------------|
|-------------------|-------------------|
|-------------------|-------------------|


  A         B           E
   E Q    E  E Q    E    E  Q  E E Q    E
|---------------------|--------------------|
|---------------------|--------------------|
|---------------------|--9--9--9-9-9----9--|
|--7-7----7--9-9----9-|--9--9--9-9-9----9--|
|--7-7----7--9-9----9-|--7--7--7-7-7----7--|
|--5-5----5--7-7----7-|--------------------|
|
|  Q    Q    Q    Q      H.           Q
|------14---12---11---|-12-----------------|
|-14------------------|--------------12----|
|---------------------|--------------------|
|---------------------|--------------------|
|---------------------|--------------------|
|---------------------|--------------------|


  B                   E
   E Q  E  E Q    E    E Q  E  E Q     E
|-------------------|--------------------|
|-------------------|--------------------|
|-------------------|--9-9--9--9-9-----9-|
|--9-9--9--9-9----9-|--9-9--9--9-9-----9-|
|--9-9--9--9-9----9-|--7-7--7--7-7-----7-|
|--7-7--7--7-7----7-|--------------------|
|
|  H       Q    Q      H       Q    E  E
|-14------16---14---|-12------11---11h12-|
|-------------------|--------------------|
|-------------------|--------------------|
|-------------------|--------------------|
|-------------------|--------------------|
|-------------------|--------------------|


  F#                        B
   E  Q     E  E  Q     E    E  Q  E E Q    E
|-------------------------|--------------------|
|-------------------------|--------------------|
|-11-11----11-11-11----11-|--------------------|
|-11-11----11-11-11----11-|--9--9--9-9-9----9--|
|--9--9-----9--9--9-----9-|--9--9--9-9-9----9--|
|-------------------------|--7--7--7-7-7----7--|
|
|  Q     Q     Q     Q       H.           Q
|-14----12----11----------|--------------------|
|-------------------14----|-12-----------12----|
|-------------------------|--------------------|
|-------------------------|--------------------|
|-------------------------|--------------------|
|-------------------------|--------------------|


  B                            E
   Q     H.                 Q   Q   Q   Q
|------------------------|-----------------|
|------------------------|-----------------|
|------------------------|------9---9---9--|
|--9---------------------|------9---9---9--|
|--9---------------------|------7---7---7--|
|--7---------------------|-----------------|
|
|  E  E  E   E  Q   E  E    Q   Q   Q   Q
|-14-12-14--12-14--16-14-|-12--------------|
|------------------------|-----12--12--12--|
|------------------------|-----------------|
|------------------------|-----------------|
|------------------------|-----------------|
|------------------------|-----------------|


  B                           E
   Q     Q     Q   Q       Q   Q   Q   Q
|-----------------------|------------------|
|-----------------------|------------------|
|-----------------------|------9---9---9---|
|--9-----------9--------|------9---9---9---|
|--9-----------9--------|------7---7---7---|
|--7-----------7--------|------------------|
|
|  E  E  E  E  Q   E  E    Q   Q   Q   Q
|-14-12-14-12-14--16-14-|-12---------------|
|-----------------------|-----12--12--12---|
|-----------------------|------------------|
|-----------------------|------------------|
|-----------------------|------------------|
|-----------------------|------------------|


  A                   E                      E         B
   E Q  E  E Q    E    E Q    E  E Q     E    E Q    E  E Q    E
|-------------------|----------------------|---------------------|
|-------------------|----------------------|---------------------|
|-------------------|--9-9----9--9-9-----9-|--9-9----9-----------|
|--7-7--7--7-7----7-|--9-9----9--9-9-----9-|--9-9----9--9-9----9-|
|--7-7--7--7-7----7-|--7-7----7--7-7-----7-|--7-7----7--9-9----9-|
|--5-5--5--5-5----5-|----------------------|------------7-7----7-|
|
|  H       Q    Q      Q    Q    Q    E  E    Q    Q    Q    Q
|---------12---17---|-16---14---12---12-14-|-16---14---12---11---|
|-14----------------|----------------------|---------------------|
|-------------------|----------------------|---------------------|
|-------------------|----------------------|---------------------|
|-------------------|----------------------|---------------------|
|-------------------|----------------------|---------------------|


  E               E                 E
   H      H         H       H        +W
|---------------|-----------------|---------*|
|---------------|-----------------|---------*|
|--9------9-----|---9-------9-----|--(9)----*|
|--9------9-----|---9-------9-----|--(9)----*|
|--7------7-----|---7-------7-----|--(7)----*|
|---------------|-----------------|---------*|
|
|  H     +H        +H      +H        +W
|-12----(12)----|-(12)----(12)----|-(12)----*|
|---------------|-----------------|---------*|
|---------------|-----------------|---------*|
|---------------|-----------------|---------*|
|---------------|-----------------|---------*|
|---------------|-----------------|---------*|



Duration Legend
---------------
W - whole; H - half; Q - quarter; E - 8th; S - 16th; T - 32nd; X - 64th; a - acciaccatura
+ - note tied to previous; . - note dotted; .. - note double dotted
Uncapitalized letters represent notes that are staccato (1/2 duration)
Irregular groupings are notated above the duration line
Duration letters will always appear directly above the note/fret number it represents the
duration for.  Duration letters with no fret number below them represent rests.  Multi-
bar rests are notated in the form Wxn, where n is the number of bars to rest for.  Low
melody durations appear below the staff

Tablature Legend
----------------
 h   - hammer-on
 p   - pull-off
 b   - bend
 pb  - pre-bend
 r   - bend release (if no number after the r, then release immediately)
 /\  - slide into or out of (from/to "nowhere")
 s   - legato slide
 S   - shift slide
 - natural harmonic
[n]  - artificial harmonic
n(n) - tapped harmonic
 ~   - vibrato
 tr  - trill
 T   - tap
 TP  - trem. picking
 PM  - palm muting
\n/  - tremolo bar dip; n = amount to dip
 \n  - tremolo bar down
 n/  - tremolo bar up
/n\  - tremolo bar inverted dip
 =   - hold bend; also acts as connecting device for hammers/pulls
 <> - volume swell (louder/softer)
 x   - on rhythm slash represents muted slash
 o   - on rhythm slash represents single note slash

Misc Legend
-----------
 |  - bar
||  - double bar
||o - repeat start
o|| - repeat end
*|  - double bar (ending)
 :  - bar (freetime)
 $  - Segno
 &  - Coda
Tempo markers -  = BPM(8/16=s8/s16), where s8 = swing 8ths, s16 = swing 16ths

Добавлено: 07.07.2012
Другие материалы по этой песне:

Страница создана 06.06.2012
http://primanota.ru/dropkick-murphys/for-boston-chords.htm
Привет, Гость.
Предлагаем пройти революционный курс по гитаре.
Подарок от PrimaNota.Ru, забирай!