PrimaNota.ru - самый крупный в мире бесплатный архив песенных текстов, аккордов, табулатур и нот


Dropkick Murphys - Famous For Nothnig - бас-таба, видео

Регистрация Запомнить меня
Войти через:  Facebook Google Twitter Vk Yandex Mail.ru

Dropkick Murphys - Famous For Nothnig - бас-таба, видео

Печатать
Просмотров: 122
Famous for Nothing bass tab by Dropkick Murphys
Tab made by KaiserWilhelm

Normal Tuning (E,A,D,G)

[----------------------------------]
[-----11--11113333----11--1111310--]
[-1111--11--------1111--11-------1-]
[----------------------------------]

[--------------------]
[--------------------]
[-1-1-6--86-6-8------]  X4
[--1-1-66--6-6-8-8651]

[-------------------------------------]
[-------------------------------------]
[-66--88101066--888866--88101066668888]  *HERE 10 ISN'T 1-0
[---66--------66------66--------------]    BUT IT'S TEN

[--------------------------]
[--------------------------]
[-1116661116-6-61116661--1-]
[----------------------13--]

[--------------------]
[--------------------]
[-1-1-6--86-6-8------]  X4
[--1-1-66--6-6-8-8651]

[-------------------------------------]
[-------------------------------------]
[-66--88101066--888866--88101066668888]  *HERE 10 ISN'T 1-0
[---66--------66------66--------------]    BUT IT'S TEN

[------------------]
[------------------]
[-6666666688888651-]
[------------------]

[------------------------------]
[------------------------------]
[-66--88101066--888866--881010-]  *HERE 10 ISN'T 1-0
[---66--------66------66-------]    BUT IT'S TEN

[------------------] [----------------------------------]
[------------------] [----------------------------------]
[-3333666611661111-] [-66668888666688886666666688888651-]
[------------------] [----------------------------------]

[------------------------------]
[------------------------------]
[-66--88101066--888866--881010-]  *HERE 10 ISN'T 1-0
[---66--------66------66-------]    BUT IT'S TEN

[------------------] [-------------------]
[------------------] [-------------------]
[-3333666611661111-] [-66688101066118888-] *HERE 10 ISN'T 1-0
[------------------] [-------------------]   BUT IT'S TEN

[--------------------------------]
[--------------------------------]
[-661188101033336666666611661111-]  *HERE 10 ISN'T 1-0
[--------------------------------]    BUT IT'S TEN

[---------------]
[---------------]
[-333366661-6-1-]
[---------------]
Добавлено: 26.04.2012
Другие материалы по этой песне:
  • Аккорды и текст

Страница создана 26.04.2012
http://primanota.ru/dropkick-murphys/famous-for-nothnig-chords.htm
Привет, Гость.
Предлагаем пройти революционный курс по гитаре.
Подарок от PrimaNota.Ru, забирай!