PrimaNota.ru - самый крупный в мире бесплатный архив песенных текстов, аккордов, табулатур и нот


Dropkick Murphys - The Boys Are Back - таба, видео

Регистрация Запомнить меня
Войти через:  Facebook Google Twitter Vk Yandex Mail.ru

Dropkick Murphys - The Boys Are Back - таба, видео

Печатать
Просмотров: 221
Авторы: Ken Casey, Jeff DaRosa, Tim Brennan, Al Barr, Matt Kelly, James Lynch

Dropkick Murphys - The boys are back

Tabbed by Csevár Ádám



Intro

Acoustic Guitar
     A#           D#              A#           D#
E||----------------------------|----------------------------|
B||--x--x--6--x-x-x--x--8--x-x-|--x--x--6--x-x-x--x--8--x-x-|
G||--x--x--7--7-7-x--x--8--8-8-|--x--x--7--7-7-x--x--8--8-8-|
D||--8--8--8--8-8-8--8--8--8-8-|--8--8--8--8-8-8--8--8--8-8-|
A||--8--8--8--8-8-6--6--6--6-6-|--8--8--8--8-8-6--6--6--6-6-|
E||--6--6--6--6-6-6--6--6--6-6-|--6--6--6--6-6-6--6--6--6-6-|

  A#           D#              F
----------------------------|----------------------------|       |-------------------|
--x--x--6--x-x-x--x--8--x-x-|--x--x--1--x-x-x--x--1--x-x-|       |--x----------------|
--x--x--7--7-7-x--x--8--8-8-|--x--x--2--2-2-x--x--2--2-2-|  6x   |--x----------------|
--8--8--8--8-8-8--8--8--8-8-|--3--3--3--3-3-3--3--3--3-3-|       |--3----------------|
--8--8--8--8-8-6--6--6--6-6-|--3--3--3--3-3-3--3--3--3-3-|       |--3----------------|
--6--6--6--6-6-6--6--6--6-6-|--1--1--1--1-1-1--1--1--1-1-|       |--1----------------|

Distortion Guitar
E||----------------------|-------------------|----------------------|---------------------|-------------------|
B||----------------------|-------------------|----------------------|---------------------|-------------------|
G||------------------3-3-|--3----------------|------------------3-3-|--3----------------3-|-------------------|
D||------------------3-3-|--3----------------|------------------3-3-|--3----------------3-|--3----------------|
A||------------------1-1-|--1----------------|------------------1-1-|--1----------------1-|--3----------------|
E||----------------------|-------------------|----------------------|---------------------|--1----------------|

----------------------|----------------------|---------------------|-------------------|
----------------------|----------------------|---------------------|-------------------|
--3---------------3-3-|--3---------------3-3-|--3----------------3-|-------------------|
--3---------------3-3-|--3---------------3-3-|--3----------------3-|--3----------------|
--1---------------1-1-|--1---------------1-1-|--1----------------1-|--3----------------|
----------------------|----------------------|---------------------|--1----------------|


Verse

Acoustic Guitar

     A#        D# A#             A#        D# A#
|---------------------------|---------------------------|
|--x--x-x--x-x--x--x--x--x--|--x--x-x--x-x--x--x--x--x--|
|--7--7-7--7-8--7--7--7--7--|--7--7-7--7-8--7--7--7--7--|
|--8--8-8--8-8--8--8--8--8--|--8--8-8--8-8--8--8--8--8--|
|--8--8-8--8-6--8--8--8--8--|--8--8-8--8-6--8--8--8--8--|
|--6--6-6--6-6--6--6--6--6--|--6--6-6--6-6--6--6--6--6--|

     A#        D# A#             A#        D# A#
---------------------------|---------------------------|
--x--x-x--x-x--x--x--x--x--|--x--x-x--x-x--x--x--x--x--|
--7--7-7--7-8--7--7--7--7--|--2--2-2--2-2--2--2--2--2--|   4x
--8--8-8--8-8--8--8--8--8--|--3--3-3--3-3--3--3--3--3--|
--8--8-8--8-6--8--8--8--8--|--3--3-3--3-3--3--3--3--3--|
--6--6-6--6-6--6--6--6--6--|--1--1-1--1-1--1--1--1--1--|

Distortion Guitar

|---------------------------|---------------------------|
|---------------------------|---------------------------|
|------------8--------------|------------8--------------|
|--8--8-8--8-8--8--8--8--8--|--8--8-8--8-8--8--8--8--8--|
|--8--8-8--8-6--8--8--8--8--|--8--8-8--8-6--8--8--8--8--|
|--6--6-6--6-6--6--6--6--6--|--6--6-6--6-6--6--6--6--6--|

---------------------------|------------------------------------|
---------------------------|------------------------------------|
------------8--------------|--10--10--10--10-10-10--10--10--10--|   4x
--8--8-8--8-8--8--8--8--8--|--10--10--10--10-10-10--10--10--10--|   
--8--8-8--8-6--8--8--8--8--|---8---8---8---8--8--8---8---8---8--|
--6--6-6--6-6--6--6--6--6--|---8---8---8---8--8--8---8---8---8--|


Pre - Chorus

Acoustic 
   A#                   C                           A#                         C
|-------------------|----------------------------|--------------------------|--------------------|
|--x----------------|---x---------x---x---x---x--|--x--x--x--x--x--x--x--x--|---x----------------|
|--7----------------|---9---------9---9---9---9--|--7--7--7--7--7--7--7--7--|---9----------------|
|--8----------------|--10--------10--10--10--10--|--8--8--8--8--8--8--8--8--|--10----------------|
|--8----------------|--10--------10--10--10--10--|--8--8--8--8--8--8--8--8--|--10----------------|
|--6----------------|---8---------8---8---8---8--|--6--6--6--6--6--6--6--6--|---8----------------|

Distortion

|-------------------|----------------------------|--------------------------|-----------------------|
|-------------------|----------------------------|--------------------------|-----------------------|
|-------------------|----------------------------|--------------------------|-----------------------|
|--8----------------|--10--------10--10--10--10--|--8--8--8--8--8--8--8--8--|--10-------------------|
|--8----------------|--10--------10--10--10--10--|--8--8--8--8--8--8--8--8--|--10-------------------|
|--6----------------|---8---------8---8---8---8--|--6--6--6--6--6--6--6--6--|---8------------18\----|


Chorus

Acoustic Guitar
 
  A#          Dx             A#          D#
--------------------------|--------------------------|
--x--x--x--x--x--x--x--x--|--x--x--x--x--x--x--x--x--|
--7--7--7--7--8--8--8--8--|--7--7--7--7--8--8--8--8--|
--8--8--8--8--8--8--8--8--|--8--8--8--8--8--8--8--8--|
--8--8--8--8--6--6--6--6--|--8--8--8--8--6--6--6--6--|
--6--6--6--6--6--6--6--6--|--6--6--6--6--6--6--6--6--|

  A#          Dx             A#          D#
--------------------------|---------------------------|         ---------------------------|
--x--x--x--x--x--x--x--x--|--x--x--x--x-x-x--x--x--x--|         --x--x--x--x-x-x--x--x--x--|
--7--7--7--7--8--8--8--8--|--2--2--2--2-2-2--2--2--2--|   2x    --2--2--2--2-2-2--2--2--2--|
--8--8--8--8--8--8--8--8--|--3--3--3--3-3-3--3--3--3--|         --3--3--3--3-3-3--3--3--3--|
--8--8--8--8--6--6--6--6--|--3--3--3--3-3-3--3--3--3--|         --3--3--3--3-3-3--3--3--3--|
--6--6--6--6--6--6--6--6--|--1--1--1--1-1-1--1--1--1--|         --1--1--1--1-1-1--1--1--1--|


Distortion Guitar

|--------------------------|--------------------------|
|--------------------------|--------------------------|
|--------------8--8--8--8--|--------------8--8--8--8--|
|--8--8--8--8--8--8--8--8--|--8--8--8--8--8--8--8--8--|
|--8--8--8--8--6--6--6--6--|--8--8--8--8--6--6--6--6--|
|--6--6--6--6--------------|--6--6--6--6--------------|

--------------------------|----------------------------------|        ----------------------------------|
--------------------------|----------------------------------|        ----------------------------------|
--------------8--8--8--8--|--10--10--10--10--10--10--10--10--|   2x   --10--10--10--10--10--10--10--10--|
--8--8--8--8--8--8--8--8--|--10--10--10--10--10--10--10--10--|        --10--10--10--10--10--10--10--10--|
--8--8--8--8--6--6--6--6--|---8---8---8---8---8---8---8---8--|        ---8---8---8---8---8---8---8---8--|
--6--6--6--6--------------|----------------------------------|        ----------------------------------|


Interlude

         - Same as Chorus (1x)

Verse

         - Same but only 2x

Chorus


Bridge

Acoustic Guitar

  A#                         D#
--------------------------|------------------------|
--x--x--x--x--x--x--x--x--|--x----x--x----x--x--x--|
--7--7--7--7--7--7--7--7--|--8----8--8----8--8--8--|   4x
--8--8--8--8--8--8--8--8--|--8----8--8----8--8--8--|
--8--8--8--8--8--8--8--8--|--6----6--6----6--6--6--|
--6--6--6--6--6--6--6--6--|--6----6--6----6--6--6--|

Distortion Guitar

--------------------------|----------------------|
--------------------------|----------------------|
--------------------------|--8------8------8--8--|   4x
--8--8--8--8--8--8--8--8--|--8------8------8--8--|
--8--8--8--8--8--8--8--8--|--6------6------6--6--|
--6--6--6--6--6--6--6--6--|----------------------|


Breakdown Part 1

Acoustic Guitar

|---------|------|------|------------|---------|----------|--------|--------------------------|
|--x------|------|------|--------x-x-|--x------|--------x-|--x-----|--------------------------|
|--x------|------|------|--------3-3-|--3------|--------3-|--3-----|--x--x--x--x--x--x--x--x--|
|--8------|------|------|--------3-3-|--3------|--------3-|--3-----|--3--3--3--3--3--3--3--3--|
|--8------|------|------|--------1-1-|--1------|--------1-|--1-----|--3--3--3--3--3--3--3--3--|
|--6------|------|------|------------|---------|----------|--------|--1--1--1--1--1--1--1--1--|

Distortion Guitar

|---------|------|------|------------|---------|----------|--------|--------------------------|
|---------|------|------|------------|---------|----------|--------|--------------------------|
|---------|------|------|--------3-3-|--3------|--------3-|--3-----|--------------------------|
|--8------|------|------|--------3-3-|--3------|--------3-|--3-----|--3--3--3--3--3--3--3--3--|
|--8------|------|------|--------1-1-|--1------|--------1-|--1-----|--3--3--3--3--3--3--3--3--|
|--6------|------|------|------------|---------|----------|--------|--1--1--1--1--1--1--1--1--|


Breakdown Part 2

Acoustic Guitar

  A#          Dx             A#          D#
--------------------------|--------------------------|
--x--x--x--x--x--x--x--x--|--x--x--x--x--x--x--x--x--|
--7--7--7--7--8--8--8--8--|--7--7--7--7--8--8--8--8--|
--8--8--8--8--8--8--8--8--|--8--8--8--8--8--8--8--8--|
--8--8--8--8--6--6--6--6--|--8--8--8--8--6--6--6--6--|
--6--6--6--6--6--6--6--6--|--6--6--6--6--6--6--6--6--|

  A#          Dx             A#          D#
--------------------------|---------------------------|         ---------------------------|
--x--x--x--x--x--x--x--x--|--x--x--x--x-x-x--x--x--x--|         --x------------------------|
--7--7--7--7--8--8--8--8--|--2--2--2--2-2-2--2--2--2--|   2x    --2------------------------|
--8--8--8--8--8--8--8--8--|--3--3--3--3-3-3--3--3--3--|         --3------------------------|
--8--8--8--8--6--6--6--6--|--3--3--3--3-3-3--3--3--3--|         --3------------------------|
--6--6--6--6--6--6--6--6--|--1--1--1--1-1-1--1--1--1--|         --1------------------------|

Distortion Guitar

--------------------------|
--5b----5b----5b----5b----|
--------------------------|   4x   
--------------------------|
--------------------------|
--------------------------|

------------------------------|          ---------------------|
--10b----10b----10b----10b----|          --10b----------------|
------------------------------|   4x     ---------------------|
------------------------------|          ---------------------|
------------------------------|          ---------------------|
------------------------------|          ---------------------|


Outro

Acoustic Guitar

              - same as Verse

Distortion Guitar

------------------------------------------|          ----------------------------|
------------------------------------------|          ----------------------------|
--9s-10-10-10--10-10--9s-10-10-10--10-10--|    3x    --5-5-5-5--5--5-5--5--5-5---|
------------------------------------------|          ----------------------------|
------------------------------------------|          ----------------------------|
------------------------------------------|          ----------------------------|
Добавлено: 13.07.2015
Другие материалы по этой песне:

Страница создана 03.06.2015
http://primanota.ru/dropkick-murphys/boys-are-back-chords.htm
Привет, Гость.
Предлагаем пройти революционный курс по гитаре.
Подарок от PrimaNota.Ru, забирай!