PrimaNota.ru - самый крупный в мире бесплатный архив песенных текстов, аккордов, табулатур и нот


Dropkick Murphys - Boondock Saints Theme - таба, видео

Регистрация Запомнить меня
Войти через:  Facebook Google Twitter Vk Yandex Mail.ru

Dropkick Murphys - Boondock Saints Theme - таба, видео

Печатать
Просмотров: 136
 0:00-0:23 (played three times)

E|-10-12-14-10----10------------10-----------10----|
B|-------------12----12-10-8-10----10-8-7-10----10-|
G|-------------------------------------------------|
D|-------------------------------------------------|
A|-------------------------------------------------|
E|-------------------------------------------------|


E|-10-12-14-10----10---------------------17----------|
B|-------------12----12-10-8/15-17-19-15----19-17-15-|
G|---------------------------------------------------|
D|---------------------------------------------------|
A|---------------------------------------------------|
E|---------------------------------------------------|


0:24-0:39
E|-----------------------------14bp12h14p12h14-10----10----------------------|
B|-----------------10-12--------------------------14----12-10h12p10----12-10-|
G|-9-11-12-9-11-12-------11b12-------------------------------------12--------|
D|---------------------------------------------------------------------------|
A|---------------------------------------------------------------------------|
E|---------------------------------------------------------------------------|


0:39-1:02
E|-----------------------10-----------------14-12-10----9-9v-|
B|-----------------10-12-------------10-10v----------12------|
G|-9-11-12-9-11-12-------------11-12-------------------------|
D|--------------------------12-------------------------------|
A|-----------------------------------------------------------|
E|-----------------------------------------------------------|


E|---------------------------------------|
B|-10-12-14-12-14/17-17v-14-12-10-14-12v-|
G|---------------------------------------|
D|---------------------------------------|
A|---------------------------------------|
E|---------------------------------------|

1:02-1:35 *Guitar I
E|-10-12-14-10----10------------10-----------10----|
B|-------------12----12-10-8-10----10-8-7-10----10-|
G|-------------------------------------------------|
D|-------------------------------------------------|
A|-------------------------------------------------|
E|-------------------------------------------------|

E|-10-12-14-10----10---------------------17----------|
B|-------------12----12-10-8/15-17-19-15----19-17-15-|
G|---------------------------------------------------|
D|---------------------------------------------------|
A|---------------------------------------------------|
E|---------------------------------------------------|

High Part (1:17-1:35) *Guitar II
E|-17-22-21-19-19-21p19p17-14-17-17-19-14-17-|
B|-------------------------------------------|
G|-------------------------------------------|
D|-------------------------------------------|
A|-------------------------------------------|
E|-------------------------------------------|

E|-17-22-21-19-21p19\17----14-17-17-17/19-14-17-|
B|----------------------15----------------------|
G|----------------------------------------------|
D|----------------------------------------------|
A|----------------------------------------------|
E|----------------------------------------------|

1:35-1:51
E|-----------------------------14p12h14p12h14-10----10----------------------|
B|-----------------10-12-------------------------14----12-10h12p10----12-10-|
G|-9-11-12-9-11-12-------11b12-------------------------------------12-------|
D|--------------------------------------------------------------------------|
A|--------------------------------------------------------------------------|
E|--------------------------------------------------------------------------|

1:51-2:14
E|-----------------------10-----------------14-12-10----9-9v-|
B|-----------------10-12-------------10-10v----------12------|
G|-9-11-12-9-11-12-------------11-12-------------------------|
D|--------------------------12-------------------------------|
A|-----------------------------------------------------------|
E|-----------------------------------------------------------|

E|-----------------------------------------|
B|-10-12-14-12-14/17-17v-14-12-10-14-12v---|
G|-----------------------------------------|
D|-----------------------------------------|
A|-----------------------------------------|
E|-----------------------------------------|

2:15-2:30
E|----------------------------------------------|
B|----------------------------------------------|
G|-11-11-11-11-11-9-9-9-9-9-7-7-7-7-7-7-7-7-7-7-|
D|-9--9--9--9--9--7-7-7-7-7-5-5-5-5-5-5-5-5-5-5-|
A|----------------------------------------------|
E|----------------------------------------------|

E|---------------------------------------------------|
B|---------------------------------------------------|
G|-7-7-7-7-7-9-9-9-9-9-11-11-11-11-11-14-14-14-14-14-|
D|-5-5-5-5-5-7-7-7-7-7-9--9--9--9--9--12-12-12-12-12-|
A|---------------------------------------------------|
E|---------------------------------------------------|

High Part (2:30-2:46) *Guitar I
E|-17-22-21-19-19-21p19p17-14-17-17-19-14-17-|
B|-------------------------------------------|
G|-------------------------------------------|
D|-------------------------------------------|
A|-------------------------------------------|
E|-------------------------------------------|

E|-17-22-21-19-21p19\17----14-17-17-17/19-14-17-|
B|----------------------15----------------------|
G|----------------------------------------------|
D|----------------------------------------------|
A|----------------------------------------------|
E|----------------------------------------------|

2:30-2:46 *Guitar II
E|-10-12-14-10----10------------10-----------10----|
B|-------------12----12-10-8-10----10-8-7-10----10-|
G|-------------------------------------------------|
D|-------------------------------------------------|
A|-------------------------------------------------|
E|-------------------------------------------------|

E|-10-12-14-10----10---------------------17----------|
B|-------------12----12-10-8/15-17-19-15----19-17-15-|
G|---------------------------------------------------|
D|---------------------------------------------------|
A|---------------------------------------------------|
E|---------------------------------------------------|

2:46-3:08
E|-14-12-14-15/17-14-12-14-10----------------------------|
B|----------------------------14-12-------10-10-12----10-|
G|-------------------------------------11----------11----|
D|----------------------------------12-------------------|
A|-------------------------------------------------------|
E|-------------------------------------------------------|

E|----------------------------------------------------|
B|-15-14h15p14-12-14-15-------10-10-12----10-15-14-10-|
G|-------------------------11----------11-------------|
D|----------------------12----------------------------|
A|----------------------------------------------------|
E|----------------------------------------------------|

High Part (3:08-3:26) *Guitar I
E|-17-22-21-19-19-21p19p17-14-17-17-19-14-17-|
B|-------------------------------------------|
G|-------------------------------------------|
D|-------------------------------------------|
A|-------------------------------------------|
E|-------------------------------------------|

E|-17-22-21-19-21p19\17----14-17-17-17/19-14-17-|
B|----------------------15----------------------|
G|----------------------------------------------|
D|----------------------------------------------|
A|----------------------------------------------|
E|----------------------------------------------|

3:10-3:26 *Guitar II
E|-10-12-14-10----10------------10-----------10----|
B|-------------12----12-10-8-10----10-8-7-10----10-|
G|-------------------------------------------------|
D|-------------------------------------------------|
A|-------------------------------------------------|
E|-------------------------------------------------|

E|-10-12-14-10----10---------------------17----------|
B|-------------12----12-10-8/15-17-19-15----19-17-15-|
G|---------------------------------------------------|
D|---------------------------------------------------|
A|---------------------------------------------------|
E|---------------------------------------------------|

3:26-end
E|----------------------------14-------------|
B|-------------------15-14-12----15-15-14-10-|
G|----11----11-12-14-------------------------|
D|-12----12----------------------------------|
A|-------------------------------------------|
E|-------------------------------------------|

E|-------------------------------|
B|----10-12-------10-10-12----10-|
G|-11----------11----------11----|
D|----------12-------------------|
A|-------------------------------|
E|-------------------------------|

E|----------------------------------------------------|
B|-15-14h15p14-12-14-15-------10-10-12----10-15-14-10-|
G|-------------------------11----------11-------------|
D|----------------------12----------------------------|
A|----------------------------------------------------|
E|----------------------------------------------------|
Добавлено: 13.05.2012
Другие материалы по этой песне:
  • Аккорды и текст

Страница создана 13.05.2012
http://primanota.ru/dropkick-murphys/boondock-saints-theme-chords.htm
Привет, Гость.
Предлагаем пройти революционный курс по гитаре.
Подарок от PrimaNota.Ru, забирай!