PrimaNota.ru - самый крупный в мире бесплатный архив песенных текстов, аккордов, табулатур и нот


Dropkick Murphys - Amazing Grace - аккорды и текст, таба, видео

Регистрация Запомнить меня
Войти через:  Facebook Google Twitter Vk Yandex Mail.ru

Dropkick Murphys - Amazing Grace - аккорды и текст, таба, видео

Печатать
Просмотров: 188
Авторы музыки: Edwin Othello Excell, [anonymous]
Авторы текста: John Newton
Amazing Grace
Dropkick Murphys
-------------------------------------------------------------------------------
AMAZING GRACE – Dropkick Murphy's
-------------------------------------------------------------------------------

By: Kevin Ross
Note: I put the chords close together to show that there was heavy rhythm, 
it
is not to be played very fast.  A nice 4 over 4 I think.

Intro: ()-palm muted
e|---------------------------------------------------------------------------|
B|---------------------------------------------------------------------------|
G|---------------------------------------------------------------------------|
D|-7-(777777777777777)----------------------------------------------------------
A|-7-(777777777777777)-----(pick slide)-----------------------------------------
E|-5-(555555555555555)----------------------------------------------------------

Verse:
e|---------------------------------------------------------------------------|
B|---------------------------------------------------------------------------|
G|---------666666-4-2222222--------------------666666-9999999999999----------|
D|-7777777-666666—4-2222222--4-2222222-7777777-666666-9999999999999----------|
A|-7777777-444444-2-0000000--4-2222222-7777777-444444-7777777777777----------|
E|-5555555-------------------2-0000000-5555555-------------------------------|

Verse Continued:
e|---------------------------------------------------------------------------|
B|---------------------------------------------------------------------------|
G|-66666666-999999999999-4-2222222-------------------6666666-4-2222222-------|
D|-66666666-999999999999-4-2222222-4-2222222-7777777-6666666-4-2222222-------|
A|-44444444-777777777777-2-0000000-4-2222222-7777777-4444444-2-0000000-------|
E|---------------------------------2-0000000-5555555-------------------------|

Bridge: ~Slide                              then...
e|-----------------------------------------/---------------------------------|
B|---------play this part twice------------/---------------------------------|
G|-----------------------------------------/---------------------------------|
D|-44~555555555555555555-44~777777777777777/-44~55555555555555555555-22222222|
A|-44~555555555555555555-44~777777777777777/-44~55555555555555555555-22222222|
E|-22~333333333333333333-22~555555555555555/-22~33333333333333333333-00000000|

Outro: > let ring
e|---------------------------------------------------------------------------|
B|---------------------------------------------------------------------------|
G|----------------6>----------4—-2>------------------------------------------|
D|--7>------------6>----------4—-2>------------------------------------------|
A|--7>------------4>----------2—-0>------------------------------------------|
E|--5>-----------------------------------------------------------------------|


Get yourself some bagpipes before guitar intro.  E-mail me @ 
kpross1319@hotmail.com

Intro
Verse
Bridge
Verse
Outro


===============================================================================
     
Добавлено: 13.06.2013
Другие материалы по этой песне:

Страница создана 05.03.2012
http://primanota.ru/dropkick-murphys/amazing-grace-chords.htm
Привет, Гость.
Предлагаем пройти революционный курс по гитаре.
Подарок от PrimaNota.Ru, забирай!