PrimaNota.ru - самый крупный в мире бесплатный архив песенных текстов, аккордов, табулатур и нот


Dropbox - Transformers Theme - таба, видео

Регистрация Запомнить меня
Войти через:  Facebook Google Twitter Vk Yandex Mail.ru

Dropbox - Transformers Theme - таба, видео

Печатать
Просмотров: 164
Уроки эстрадного вокала в Санкт-Петербурге
Song: Transformers Theme
Artist: DropBox
Tuning: Drop D
Tabbed By: GuitarHawk99
Description:

This is the tab for the song Transformers theme which was in the 2004 
Transformers Armada Game. The song sounds good 
with a heavy distortion. Enjoy!

Intro/Verse: guitar 1 w/ Dist
|-|-------------------------------------|    
|0|-------------------------------------|    
|-|-------------------------------------|    
|-|-0h2-2-2-0h2-2-2-0h2--2-0h2-2-2-3----|- X3
|0|-0h2-2-2-0h2-2-2-0h2--2-0h2-2-2-3----|    
|-|-0h2-2-2-0h2-2-2-0h2--2-0h2-2-2-3----|    

|---------------------------------------|-|
|---------------------------------------|0|
|---------------------------------------|-|
|-0h2-2-2-5-2--2-2-0h2-(2)/555-222-3----|-|- repeat intro 2 more times
|-0h2-2-2-5-2--2-2-0h2-(2)/555-222-3----|0|
|-0h2-2-2-5-2--2-2-0h2-(2)/555-222-3----|-|
                        pm|_________|
Intro: guitar 2 w/ Dist                              
|-|-------------------------------------|    
|0|-------------------------------------|    
|-|-------------------------------------|    
|-|-7/9--9-9-7/9--9-9-7/9--9-7/9--9-9-10| x3 
|0|-5/7--7-7-5/7--7-7-5/7--7-5/7--7-7-8-|    
|-|-------------------------------------|    

|--------------------------------------|-|
|--------------------------------------|0|
|--------------------------------------|-|- guitar 2 joins in 
|-7/9--9-9-12\9--9-9-7/9-121212-999-10-|-|  the second time
|-5/7--7-7-10\7--7-7-5/7-101010-777-8--|0|  
|--------------------------------------|-|  

Chorus: guitar 1
|-----------------------------|
|-----------------------------|
|-----------------------------|
|-22----22----22----22----3-3-| x4
|-22----22----22----22----3-3-|
|-22----22----22----22----3-3-|

Pre Verse: guitar 2
|---------------------------------------------|
|0-------------------------------------------0| 
|----------------------------------------3-2--|- guitar 1 plays verse   
|--22-44-5----2-4-5-----22-44-5----2-4-5------|  riff while guitar 2  
|0------------------2-3----------------------0|  plays this
|---------------------------------------------|



Repeat intro with guitars 1&2 once then...


Chorus: guitar 1
|-----------------------------|
|-----------------------------|
|-----------------------------|
|-22----22----22----22----3-3-| 
|-22----22----22----22----3-3-|
|-22----22----22----22----3-3-|

|---------------------------------|
|---------------------------------|
|---------------------------------|
|-22----22----22----22----3-------| 
|-22----22----22----22----3-------|
|-22----22----22----22----3b--(3)-|
                           \  /
                            \/ 
                           Full
|-----------------------------|
|-----------------------------|
|-----------------------------|
|-22----22----22----22----3-3-|
|-22----22----22----22----3-3-|
|-22----22----22----22----3-3-|

|---------------------------------|
|---------------------------------|
|---------------------------------|
|-22----22----22----22----3-------| 
|-22----22----22----22----3-------|
|-22----22----22----22----3b--(3)-|
                           \  /
                            \/ 
                           Full


Pre verse                  




Outro verse: guitar 1
|--------------------------|    
|--------------------------|    
|--------------------------|    
|-0h2-2-2-0h2-2-2-0h2------| x8
|-0h2-2-2-0h2-2-2-0h2------|    
|-0h2-2-2-0h2-2-2-0h2------|    

Guitar 2
|--------------------------|    
|--------------------------|  
|--------------------------|   
|-7/9--9-9-7/9--9-9-7/9----| play 3 times with guitar 1
|-5/7--7-7-5/7--7-7-5/7----| 
|--------------------------|  

guitar 1
|------------------|
|------------------|
|------------------| 
|-555-222-3--------|
|-555-222-3--------|
|-555-222-3--------|
|                  |-both play at the same time
guitar 2           |
|------------------|
|------------------|
|------------------| 
|-121212-999-10----|
|-101010-777-8-----|
|------------------|
Добавлено: 18.06.2013
Другие материалы по этой песне:
  • Аккорды и текст

Страница создана 18.06.2013
http://primanota.ru/dropbox/transformers-theme-chords.htm
Привет, Гость.
Предлагаем пройти революционный курс по гитаре.
Подарок от PrimaNota.Ru, забирай!