PrimaNota.ru - самый крупный в мире бесплатный архив песенных текстов, аккордов, табулатур и нот


Drop Dead - The Arc - таба, бас-таба, драм-таба, видео

Регистрация Запомнить меня
Войти через:  Facebook Google Twitter Vk Yandex Mail.ru

Drop Dead - The Arc - таба, бас-таба, драм-таба, видео

Печатать
Просмотров: 178
Уроки эстрадного вокала в Санкт-Петербурге
The Arc
Drop Dead
Drop Dead
Kwonnie - kwonnie@live.com

Center Guitar



      E  E   E  E  E  E  E   E      E  E   E  E  E  E  E   E   
D||-----------------------------|-----------------------------|
A||--17-------------------------|--18-------------------------|
F||-----------------------------|-----------------------------|
C||------0--15--0--------0--15--|------0--15--0--------0--15--|
G||-----------------------------|-----------------------------|
C||----------------0--0---------|----------------0--0---------|


   E  E   E  E  E  E  E   E      E  E   E   E  E   E   E  E   
-----------------------------|--17---------------------------|
--20-------------------------|-------------20---------18-----|
-----------------------------|-------------------------------|
------0--15--0--------0--15--|------0--15------0--15------0--|
-----------------------------|-------------------------------|
----------------0--0---------|-------------------------------|


   E  E   E  E  E  E  E   E      E  E   E  E  E  E  E   E   
-----------------------------|-----------------------------|
--17-------------------------|--18-------------------------|
-----------------------------|-----------------------------|
------0--15--0--------0--15--|------0--15--0--------0--15--|
-----------------------------|-----------------------------|
----------------0--0---------|----------------0--0---------|


   E  E   E  E  E  E  E   E      E  E   E   E  E   E   E  E   
-----------------------------|--17---------------------------|
--20-------------------------|-------------20---------18-----|
-----------------------------|-------------------------------|
------0--15--0--------0--15--|------0--15------0--15------0--|
-----------------------------|-------------------------------|
----------------0--0---------|-------------------------------|


   E  E   E  E  E  E  E   E      E  E   E  E  E  E  E   E   
-----------------------------|-----------------------------|
--17-------------------------|--18-------------------------|
-----------------------------|-----------------------------|
------0--15--0--------0--15--|------0--15--0--------0--15--|
-----------------------------|-----------------------------|
----------------0--0---------|----------------0--0---------|


   E  E   E  E  E  E  E   E      E  E   E   E  E   E   E  E   
-----------------------------|--17---------------------------|
--20-------------------------|-------------20---------18-----|
-----------------------------|-------------------------------|
------0--15--0--------0--15--|------0--15------0--15------0--|
-----------------------------|-------------------------------|
----------------0--0---------|-------------------------------|


   E  E   E  E  E  E  E   E      E  E   E  E  E  E  E   E   
-----------------------------|-----------------------------|
--17-------------------------|--18-------------------------|
-----------------------------|-----------------------------|
------0--15--0--------0--15--|------0--15--0--------0--15--|
-----------------------------|-----------------------------|
----------------0--0---------|----------------0--0---------|


   E  E   E  E  E  E  E   E      E  E   E   E  E   E   E  E   
-----------------------------|--17---------------------------|
--20-------------------------|-------------20---------18-----|
-----------------------------|-------------------------------|
------0--15--0--------0--15--|------0--15------0--15------0--|
-----------------------------|-------------------------------|
----------------0--0---------|-------------------------------|


  W                   W                   W                   W                 
-------------------|-------------------|-------------------|-------------------|
-------------------|-------------------|-------------------|-------------------|
-------------------|-------------------|-------------------|-------------------|
-------------------|-------------------|-------------------|-------------------|
-------------------|-------------------|-------------------|-------------------|
-------------------|-------------------|-------------------|-------------------|


  W                   W                   W                   W                 
-------------------|-------------------|-------------------|-------------------|
-------------------|-------------------|-------------------|-------------------|
-------------------|-------------------|-------------------|-------------------|
-------------------|-------------------|-------------------|-------------------|
-------------------|-------------------|-------------------|-------------------|
-------------------|-------------------|-------------------|-------------------|


  W                   W                   W                   W                 
-------------------|-------------------|-------------------|-------------------|
-------------------|-------------------|-------------------|-------------------|
-------------------|-------------------|-------------------|-------------------|
-------------------|-------------------|-------------------|-------------------|
-------------------|-------------------|-------------------|-------------------|
-------------------|-------------------|-------------------|-------------------|


  W                   W                   W                   W                 
-------------------|-------------------|-------------------|-------------------|
-------------------|-------------------|-------------------|-------------------|
-------------------|-------------------|-------------------|-------------------|
-------------------|-------------------|-------------------|-------------------|
-------------------|-------------------|-------------------|-------------------|
-------------------|-------------------|-------------------|-------------------|


  W                   W                   W                   W                 
-------------------|-------------------|-------------------|-------------------|
-------------------|-------------------|-------------------|-------------------|
-------------------|-------------------|-------------------|-------------------|
--0----------------|--L----------------|--L----------------|--L----------------|
--0----------------|--L----------------|--L----------------|--L----------------|
--0----------------|--L----------------|--L----------------|--L----------------|


  W                   W                   W                 
-------------------|-------------------|-------------------|
-------------------|-------------------|-------------------|
-------------------|-------------------|-------------------|
--0----------------|--L----------------|--L----------------|
--0----------------|--L----------------|--L----------------|
--0----------------|--L----------------|--L----------------|


           PM PM PM PM                                          
  H        E  E  E  E     W                   W                 
-----------------------|-------------------|-------------------|
-----------------------|-------------------|-------------------|
-----------------------|-------------------|-------------------|
--L--------0--0--0--0--|-------------------|-------------------|
--L--------0--0--0--0--|-------------------|-------------------|
--L--------0--0--0--0--|-------------------|-------------------|


  W                   W                   W                   W                 
-------------------|-------------------|-------------------|-------------------|
-------------------|-------------------|-------------------|-------------------|
-------------------|-------------------|-------------------|-------------------|
-------------------|-------------------|-------------------|-------------------|
-------------------|-------------------|-------------------|-------------------|
-------------------|-------------------|-------------------|-------------------|


                                          PM PM PM PM PM PM PM PM  
  W                   W                   E  E  E  E  E  E  E  E   
-------------------|-------------------|--------------------------|
-------------------|-------------------|--------------------------|
-------------------|-------------------|--------5--5--------------|
-------------------|-------------------|--------------------7--7--|
-------------------|-------------------|--8--8--------7--7--------|
-------------------|-------------------|--------------------------|


  PM PM PM PM PM PM PM PM    PM PM PM PM PM PM PM PM  
  E  E  E  E  E  E  E  E     E  E  E  E  E  E  E  E   
--------------------------|--------------------------|
--------------------------|--------------------------|
--------------------------|--------------------------|
--8--8--7--7--5--5--------|--------------------------|
--------------------8--8--|--5--5--7--7--5--5--8--8--|
--------------------------|--------------------------|


  PM PM PM PM PM PM PM PM    PM PM PM PM PM PM PM PM  
  E  E  E  E  E  E  E  E     E  E  E  E  E  E  E  E   
--------------------------|--------------------------|
--------------------------|--------------------------|
--------------------------|--------5--5--------------|
--5--5--------------------|--------------------7--7--|
--------8--8--7--7--5--5--|--8--8--------7--7--------|
--------------------------|--------------------------|


  PM PM PM PM PM PM PM PM    PM PM PM PM PM PM PM PM  
  E  E  E  E  E  E  E  E     E  E  E  E  E  E  E  E   
--------------------------|--------------------------|
--------------------------|--------------------------|
--------------------------|--------------------------|
--8--8--7--7--5--5--------|--------------------------|
--------------------8--8--|--5--5--7--7--5--5--8--8--|
--------------------------|--------------------------|


  PM PM PM PM PM PM PM PM    PM PM PM PM PM PM PM PM  
  E  E  E  E  E  E  E  E     E  E  E  E  E  E  E  E   
--------------------------|--------------------------|
--------------------5--5--|--------------------------|
--------5--5--7--7--------|--------5--5--------------|
--5--5--------------------|--------------------7--7--|
--------------------------|--8--8--------7--7--------|
--------------------------|--------------------------|


  PM PM PM PM PM PM PM PM    PM PM PM PM PM PM PM PM  
  E  E  E  E  E  E  E  E     E  E  E  E  E  E  E  E   
--------------------------|--------------------------|
--------------------------|--------------------------|
--------------------------|--------------------------|
--8--8--7--7--5--5--------|--------------------------|
--------------------8--8--|--5--5--7--7--5--5--8--8--|
--------------------------|--------------------------|


  PM PM PM PM PM PM PM PM    PM PM PM PM PM PM PM PM  
  E  E  E  E  E  E  E  E     E  E  E  E  E  E  E  E   
--------------------------|--------------------------|
--------------------------|--------------------------|
--------------------------|--------5--5--------------|
--5--5--------------------|--------------------7--7--|
--------8--8--7--7--5--5--|--8--8--------7--7--------|
--------------------------|--------------------------|


  PM PM PM PM PM PM PM PM    PM PM PM PM PM PM PM PM  
  E  E  E  E  E  E  E  E     E  E  E  E  E  E  E  E   
--------------------------|--------------------------|
--------------------------|--------------------------|
--------------------------|--------------------------|
--8--8--7--7--5--5--------|--------------------------|
--------------------8--8--|--5--5--7--7--5--5--8--8--|
--------------------------|--------------------------|


  PM PM PM PM PM PM PM PM    PM PM            PM PM PM  
  E  E  E  E  E  E  E  E     E  E   E  E   E  E  E  E   
--------------------------|----------------------------|
--------------------5--5--|----------------------------|
--------5--5--7--7--------|--------10--7--10--------7--|
--5--5--------------------|-----7----------------7-----|
--------------------------|--7----------------7--------|
--------------------------|----------------------------|


             PM PM PM PM PM    PM PM            PM PM PM  
   E  E   E  E  E  E  E  E     E  E   E  E   E  E  E  E   
----------------------------|----------------------------|
----------------------------|----------------------------|
--10--7--10--------7--------|--------10--7--10--------7--|
----------------7--------7--|-----7----------------7-----|
-------------7--------7-----|--7----------------7--------|
----------------------------|----------------------------|


                               PM PM            PM PM PM  
   E  E   E  Q     E  E  E     E  E   E  E   E  E  E  E   
----------------------------|----------------------------|
-------------8--------------|----------------------------|
--10--7--10-------10--9--7--|--------10--7--10--------7--|
----------------------------|-----7----------------7-----|
----------------------------|--7----------------7--------|
----------------------------|----------------------------|


             PM PM PM PM PM    PM PM            PM PM PM  
   E  E   E  E  E  E  E  E     E  E   E  E   E  E  E  E   
----------------------------|----------------------------|
----------------------------|----------------------------|
--10--7--10--------7--------|--------10--7--10--------7--|
----------------7--------7--|-----7----------------7-----|
-------------7--------7-----|--7----------------7--------|
----------------------------|----------------------------|


                               PM PM            PM PM PM  
   E  E   E  Q     E  E  E     E  E   E  E   E  E  E  E   
----------------------------|----------------------------|
-------------8--------------|----------------------------|
--10--7--10-------10--9--7--|--------10--7--10--------7--|
----------------------------|-----7----------------7-----|
----------------------------|--7----------------7--------|
----------------------------|----------------------------|


             PM PM PM PM PM    PM PM            PM PM PM  
   E  E   E  E  E  E  E  E     E  E   E  E   E  E  E  E   
----------------------------|----------------------------|
----------------------------|----------------------------|
--10--7--10--------7--------|--------10--7--10--------7--|
----------------7--------7--|-----7----------------7-----|
-------------7--------7-----|--7----------------7--------|
----------------------------|----------------------------|


                               PM PM            PM PM PM  
   E  E   E  Q     E  E  E     E  E   E  E   E  E  E  E   
----------------------------|----------------------------|
-------------8--------------|----------------------------|
--10--7--10-------10--9--7--|--------10--7--10--------7--|
----------------------------|-----7----------------7-----|
----------------------------|--7----------------7--------|
----------------------------|----------------------------|


             PM PM PM PM PM    PM PM            PM PM PM  
   E  E   E  E  E  E  E  E     E  E   E  E   E  E  E  E   
----------------------------|----------------------------|
----------------------------|----------------------------|
--10--7--10--------7--------|--------10--7--10--------7--|
----------------7--------7--|-----7----------------7-----|
-------------7--------7-----|--7----------------7--------|
----------------------------|----------------------------|


  PM PM PM PM PM PM                                                
  E  E  E  E  E  E  Q        W                   W                 
--------------------------|-------------------|-------------------|
--------------------------|-------------------|-------------------|
--------7-----------------|-------------------|-------------------|
-----7-----0--0--8--7\----|-------------------|-------------------|
--7--------0--0--8--7\----|-------------------|-------------------|
-----------0--0--8--7\----|-------------------|-------------------|


  W                   W                   W                   W                 
-------------------|-------------------|-------------------|-------------------|
-------------------|-------------------|-------------------|-------------------|
-------------------|-------------------|-------------------|-------------------|
-------------------|-------------------|-------------------|-------------------|
-------------------|-------------------|-------------------|-------------------|
-------------------|-------------------|-------------------|-------------------|


  W                   W                   W                   W                 
-------------------|-------------------|-------------------|-------------------|
-------------------|-------------------|-------------------|-------------------|
-------------------|-------------------|-------------------|-------------------|
-------------------|-------------------|-------------------|-------------------|
-------------------|-------------------|-------------------|-------------------|
-------------------|-------------------|-------------------|-------------------|


  W                   W                   W                   W                 
-------------------|-------------------|-------------------|-------------------|
-------------------|-------------------|-------------------|-------------------|
-------------------|-------------------|-------------------|-------------------|
-------------------|-------------------|-------------------|-------------------|
-------------------|-------------------|-------------------|-------------------|
-------------------|-------------------|-------------------|-------------------|


  W                   W                   W                   W                 
-------------------|-------------------|-------------------|-------------------|
-------------------|-------------------|-------------------|-------------------|
-------------------|-------------------|-------------------|-------------------|
-------------------|-------------------|-------------------|-------------------|
-------------------|-------------------|-------------------|-------------------|
-------------------|-------------------|-------------------|-------------------|


  W                   W                   W                   W                 
-------------------|-------------------|-------------------|-------------------|
-------------------|-------------------|-------------------|-------------------|
-------------------|-------------------|-------------------|-------------------|
-------------------|-------------------|--0----------------|--L----------------|
-------------------|-------------------|--0----------------|--L----------------|
-------------------|-------------------|--0----------------|--L----------------|


  W                   H         H            E  E   E  E   E   E  E   E   
-------------------|---------------------|-------------------------------|
-------------------|---------------------|-------------------------------|
-------------------|---------------------|-------------------------------|
--L----------------|--3--------10--------|--22--0--17--0--24--22--0--20--|
--L----------------|--3--------10--------|-------------------------------|
--L----------------|--3--------10--------|-------------------------------|


  E   E   E  E   E  E   E  E      E  E   E  E   E   E  E   E   
------------------------------|-------------------------------|
------------------------------|-------------------------------|
------------------------------|-------------------------------|
--0--17--19--0--20--0--17--0--|--22--0--17--0--24--22--0--20--|
------------------------------|-------------------------------|
------------------------------|-------------------------------|


  E   E   E  E  E   E   E  E      E  E   E  E   E   E  E   E   
------------------------------|-------------------------------|
------------------------------|-------------------------------|
------------------------------|-------------------------------|
--0--17--19--0--0--15--17--0--|--22--0--17--0--24--22--0--20--|
------------------------------|-------------------------------|
------------------------------|-------------------------------|


  E   E   E  E   E  E   E  E      E  E   E  E   E   E  E   E   
------------------------------|-------------------------------|
------------------------------|-------------------------------|
------------------------------|-------------------------------|
--0--17--19--0--20--0--17--0--|--22--0--17--0--24--22--0--20--|
------------------------------|-------------------------------|
------------------------------|-------------------------------|


  E   E   E  E  E   E   E  E      E  E   E  E   E   E  E   E   
------------------------------|-------------------------------|
------------------------------|-------------------------------|
------------------------------|-------------------------------|
--0--17--19--0--0--15--17--0--|--22--0--17--0--24--22--0--20--|
------------------------------|-------------------------------|
------------------------------|-------------------------------|


  E   E   E  E   E  E   E  E      E  E   E  E   E   E  E   E   
------------------------------|-------------------------------|
------------------------------|-------------------------------|
------------------------------|-------------------------------|
--0--17--19--0--20--0--17--0--|--22--0--17--0--24--22--0--20--|
------------------------------|-------------------------------|
------------------------------|-------------------------------|


  E   E   E  E  E   E   E  E      E  E   E  E   E   E  E   E   
------------------------------|-------------------------------|
------------------------------|-------------------------------|
------------------------------|-------------------------------|
--0--17--19--0--0--15--17--0--|--22--0--17--0--24--22--0--20--|
------------------------------|-------------------------------|
------------------------------|-------------------------------|


  E   E   E  E   E  E   E  E      E  E   E  E   E   E  E   E   
------------------------------|-------------------------------|
------------------------------|-------------------------------|
------------------------------|-------------------------------|
--0--17--19--0--20--0--17--0--|--22--0--17--0--24--22--0--20--|
------------------------------|-------------------------------|
------------------------------|-------------------------------|


  E   E   E  E  E   E   E  E     W                   W                 
------------------------------|-------------------|-------------------|
------------------------------|-------------------|-------------------|
------------------------------|-------------------|-------------------|
--0--17--19--0--0--15--17--0--|-------------------|-------------------|
------------------------------|-------------------|-------------------|
------------------------------|-------------------|-------------------|


  W                   W                   W                   W                 
-------------------|-------------------|-------------------|-------------------|
-------------------|-------------------|-------------------|-------------------|
-------------------|-------------------|-------------------|-------------------|
-------------------|-------------------|-------------------|-------------------|
-------------------|-------------------|-------------------|-------------------|
-------------------|-------------------|-------------------|-------------------|


  W                   W                   W                   W                 
-------------------|-------------------|-------------------|-------------------|
-------------------|-------------------|-------------------|-------------------|
-------------------|-------------------|-------------------|-------------------|
-------------------|-------------------|-------------------|-------------------|
-------------------|-------------------|-------------------|-------------------|
-------------------|-------------------|-------------------|-------------------|


  W                   W                   W                   W                 
-------------------|-------------------|-------------------|-------------------|
-------------------|-------------------|-------------------|-------------------|
-------------------|-------------------|-------------------|-------------------|
-------------------|-------------------|-------------------|-------------------|
-------------------|-------------------|-------------------|-------------------|
-------------------|-------------------|-------------------|-------------------|


  W                   W                   W                   W                 
-------------------|-------------------|-------------------|-------------------|
-------------------|-------------------|-------------------|-------------------|
-------------------|-------------------|-------------------|-------------------|
-------------------|-------------------|-------------------|-------------------|
-------------------|-------------------|-------------------|-------------------|
-------------------|-------------------|-------------------|-------------------|


  W                   W                   W                 
-------------------|-------------------|-------------------|
-------------------|-------------------|-------------------|
-------------------|-------------------|-------------------|
-------------------|-------------------|-------------------|
-------------------|-------------------|-------------------|
-------------------|-------------------|-------------------|


   E  E   E  E  E  E  E   E      E  E   E  E  E  E  E   E   
-----------------------------|-----------------------------|
--17-------------------------|--18-------------------------|
-----------------------------|-----------------------------|
------0--15--0--------0--15--|------0--15--0--------0--15--|
-----------------------------|-----------------------------|
----------------0--0---------|----------------0--0---------|


   E  E   E  E  E  E  E   E      E  E   E   E  E   E   E  E   
-----------------------------|--17---------------------------|
--20-------------------------|-------------20---------18-----|
-----------------------------|-------------------------------|
------0--15--0--------0--15--|------0--15------0--15------0--|
-----------------------------|-------------------------------|
----------------0--0---------|-------------------------------|


   E  E   E  E  E  E  E   E      E  E   E  E  E  E  E   E   
-----------------------------|-----------------------------|
--17-------------------------|--18-------------------------|
-----------------------------|-----------------------------|
------0--15--0--------0--15--|------0--15--0--------0--15--|
-----------------------------|-----------------------------|
----------------0--0---------|----------------0--0---------|


   E  E   E  E  E  E  E   E      E  E   E   E  E   E   E  E   
-----------------------------|--17---------------------------|
--20-------------------------|-------------20---------18-----|
-----------------------------|-------------------------------|
------0--15--0--------0--15--|------0--15------0--15------0--|
-----------------------------|-------------------------------|
----------------0--0---------|-------------------------------|


   E  E   E  E  E  E  E   E      E  E   E  E  E  E  E   E   
-----------------------------|-----------------------------|
--17-------------------------|--18-------------------------|
-----------------------------|-----------------------------|
------0--15--0--------0--15--|------0--15--0--------0--15--|
-----------------------------|-----------------------------|
----------------0--0---------|----------------0--0---------|


   E  E   E  E  E  E  E   E      E  E   E   E  E   E   E  E   
-----------------------------|--17---------------------------|
--20-------------------------|-------------20---------18-----|
-----------------------------|-------------------------------|
------0--15--0--------0--15--|------0--15------0--15------0--|
-----------------------------|-------------------------------|
----------------0--0---------|-------------------------------|


   E  E   E  E  E  E  E   E      E  E   E  E  E  E  E   E   
-----------------------------|-----------------------------|
--17-------------------------|--18-------------------------|
-----------------------------|-----------------------------|
------0--15--0--------0--15--|------0--15--0--------0--15--|
-----------------------------|-----------------------------|
----------------0--0---------|----------------0--0---------|


   E  E   E  E  E  E  E   E      E  E   E   E  E   E   E  E   
-----------------------------|--17---------------------------|
--20-------------------------|-------------20---------18-----|
-----------------------------|-------------------------------|
------0--15--0--------0--15--|------0--15------0--15------0--|
-----------------------------|-------------------------------|
----------------0--0---------|-------------------------------|


  W                   W                  
-------------------|-------------------||
-------------------|-------------------||
-------------------|-------------------||
-------------------|-------------------||
-------------------|-------------------||
-------------------|-------------------||



Left Guitar



     E  H        E  E  E     E  H        E  E  E     E  H        E  E  E   
D||-----------------------|-----------------------|-----------------------|
A||-----------------------|-----------------------|-----------------------|
F||-----------------------|-----------------------|-----------------------|
C||--5-----------0--0-----|--------------0--0-----|--------------3--3-----|
G||--5-----------0--0-----|--------------0--0-----|--------------3--3-----|
C||--5-----------0--0-----|--------------0--0-----|--------------3--3-----|


  E  E  E  E  E  E  E  E     E  H        E  E  E     E  H        E  E  E   
--------------------------|-----------------------|-----------------------|
--------------------------|-----------------------|-----------------------|
--------------------------|-----------------------|-----------------------|
--7--0--0--5--0--0--3--0--|--5-----------0--0-----|--------------0--0-----|
--7--0--0--5--0--0--3--0--|--5-----------0--0-----|--------------0--0-----|
--7--0--0--5--0--0--3--0--|--5-----------0--0-----|--------------0--0-----|


  E  H        E  E  E     E  E  E  E  E  E  E  E     E  H        E  E  E   
-----------------------|--------------------------|-----------------------|
-----------------------|--------------------------|-----------------------|
-----------------------|--------------------------|-----------------------|
--------------3--3-----|--7--0--0--5--0--0--3--0--|--5-----------0--0-----|
--------------3--3-----|--7--0--0--5--0--0--3--0--|--5-----------0--0-----|
--------------3--3-----|--7--0--0--5--0--0--3--0--|--5-----------0--0-----|


  E  H        E  E  E     E  H        E  E  E     E  E  E  E  E  E  E  E   
-----------------------|-----------------------|--------------------------|
-----------------------|-----------------------|--------------------------|
-----------------------|-----------------------|--------------------------|
--------------0--0-----|--------------3--3-----|--7--0--0--5--0--0--3--0--|
--------------0--0-----|--------------3--3-----|--7--0--0--5--0--0--3--0--|
--------------0--0-----|--------------3--3-----|--7--0--0--5--0--0--3--0--|


  E  H        E  E  E     E  H        E  E  E     E  H        E  E  E   
-----------------------|-----------------------|-----------------------|
-----------------------|-----------------------|-----------------------|
-----------------------|-----------------------|-----------------------|
--5-----------0--0-----|--------------0--0-----|--------------3--3-----|
--5-----------0--0-----|--------------0--0-----|--------------3--3-----|
--5-----------0--0-----|--------------0--0-----|--------------3--3-----|


                             PM PM PM PM    PM PM PM  
  E  E  E  E  E  E  E  E     E  E  E  E  E  E  E  E   
--------------------------|--------------------------|
--------------------------|--------------------------|
--------------------------|--------------------------|
--7--0--0--5--0--0--3--0--|--------------------------|
--7--0--0--5--0--0--3--0--|--0--0--0--0-----0--0--0--|
--7--0--0--5--0--0--3--0--|--0--0--0--0-----0--0--0--|


  PM PM PM PM        PM PM PM    PM PM PM PM    PM PM PM  
  S  S  E  E  Q.     S  S  E     E  E  E  E  E  E  E  E   
------------------------------|--------------------------|
------------------------------|--------------------------|
------------------------------|--------------------------|
------------------------------|--------------------------|
--0--0--0--0---------0--0--0--|--0--0--0--0-----0--0--0--|
--0--0--0--0---------0--0--0--|--0--0--0--0-----0--0--0--|


  PM PM PM PM PM PM PM PM PM PM    PM PM PM PM    PM PM PM  
  S  S  E  E  S  S  E  E  E  E     E  E  E  E  E  E  E  E   
--------------------------------|--------------------------|
--------------------------------|--------------------------|
--------------------------------|--------------------------|
--------------------------------|--------------------------|
--0--0--0--0--0--0--0--0--0--0--|--0--0--0--0-----0--0--0--|
--0--0--0--0--0--0--0--0--0--0--|--0--0--0--0-----0--0--0--|


  PM PM PM PM        PM PM PM    PM PM PM PM    PM PM PM  
  S  S  E  E  Q.     S  S  E     E  E  E  E  E  E  E  E   
------------------------------|--------------------------|
------------------------------|--------------------------|
------------------------------|--------------------------|
------------------------------|--------------------------|
--0--0--0--0---------0--0--0--|--0--0--0--0-----0--0--0--|
--0--0--0--0---------0--0--0--|--0--0--0--0-----0--0--0--|


  PM PM PM PM PM PM PM PM PM PM       PM PM    PM PM    PM  
  S  S  E  E  S  S  E  E  E  E     E  E  E  E  E  E  E  E   
--------------------------------|--------------------------|
--------------------------------|--------------------------|
--------------------------------|--------------------------|
--------------------------------|--------------------------|
--0--0--0--0--0--0--0--0--0--0--|--7--------7--------7-----|
--0--0--0--0--0--0--0--0--0--0--|-----0--0-----0--0-----0--|


  PM    PM PM    PM    PM       PM PM    PM PM    PM  
  E  E  E  E  E  E  E  E     E  E  E  E  E  E  E  E   
--------------------------|--------------------------|
--------------------------|--------------------------|
--------------------------|--------------------------|
--------------------------|--------------------------|
-----7--------5-----8-----|--7--------7--------7-----|
--0-----0--0-----0-----0--|-----0--0-----0--0-----0--|


  PM    PM PM                   PM PM    PM PM    PM  
  E  E  E  E   Q    E  E     E  E  E  E  E  E  E  E   
--------------------------|--------------------------|
--------------------------|--------------------------|
--------------------------|--------------------------|
--------------/7----5-----|--------------------------|
-----7-----------------8--|--7--------7--------7-----|
--0-----0--0--------------|-----0--0-----0--0-----0--|


  PM    PM PM    PM    PM       PM PM    PM PM    PM  
  E  E  E  E  E  E  E  E     E  E  E  E  E  E  E  E   
--------------------------|--------------------------|
--------------------------|--------------------------|
--------------------------|--------------------------|
--------------------------|--------------------------|
-----7--------5-----8-----|--7--------7--------7-----|
--0-----0--0-----0-----0--|-----0--0-----0--0-----0--|


  PM    PM PM                 PM             PM       PM    PM PM      PM     
  E  E  E  E   Q    E   E     E  H        E  E  E     E  E  E  E  Q    E  E   
---------------------------|-----------------------|-------------------------|
---------------------------|-----------------------|-------------------------|
---------------------------|-----------------------|-------------------------|
--------------/7----8--10--|--0--------------0-----|--0-----0--0-------0-----|
-----7---------------------|--0--------------0-----|--0-----0--0-------0-----|
--0-----0--0---------------|--0--------------0-----|--0-----0--0-------0-----|


  PM    PM PM    PM    PM       PM PM    PM PM PM PM    PM             PM     
  E  E  E  E  E  E  E  E     E  E  E  E  E  E  E  E     E  H        E  E  E   
--------------------------|--------------------------|-----------------------|
--------------------------|--------------------------|-----------------------|
--------------------------|--------------------------|-----------------------|
--0-----0--0-----0-----0--|-----0--0-----0--0--0--0--|--0--------------0-----|
--0-----0--0-----0-----0--|-----0--0-----0--0--0--0--|--0--------------0-----|
--0-----0--0-----0-----0--|-----0--0-----0--0--0--0--|--0--------------0-----|


  PM    PM PM      PM       PM    PM PM    PM    PM       PM PM    PM PM PM PM  
  E  E  E  E  Q    E  E     E  E  E  E  E  E  E  E     E  E  E  E  E  E  E  E   
-------------------------|--------------------------|--------------------------|
-------------------------|--------------------------|--------------------------|
-------------------------|--------------------------|--------------------------|
--0-----0--0-------0-----|--0-----0--0-----0-----0--|-----0--0-----0--0--0--0--|
--0-----0--0-------0-----|--0-----0--0-----0-----0--|-----0--0-----0--0--0--0--|
--0-----0--0-------0-----|--0-----0--0-----0-----0--|-----0--0-----0--0--0--0--|


  PM PM PM PM    PM PM PM    PM PM PM PM        PM PM PM  
  E  E  E  E  E  E  E  E     S  S  E  E  Q.     S  S  E   
--------------------------|------------------------------|
--------------------------|------------------------------|
--------------------------|------------------------------|
--------------------------|------------------------------|
--0--0--0--0-----0--0--0--|--0--0--0--0---------0--0--0--|
--0--0--0--0-----0--0--0--|--0--0--0--0---------0--0--0--|


  PM PM PM PM    PM PM PM    PM PM PM PM PM PM PM PM PM PM  
  E  E  E  E  E  E  E  E     S  S  E  E  S  S  E  E  E  E   
--------------------------|--------------------------------|
--------------------------|--------------------------------|
--------------------------|--------------------------------|
--------------------------|--------------------------------|
--0--0--0--0-----0--0--0--|--0--0--0--0--0--0--0--0--0--0--|
--0--0--0--0-----0--0--0--|--0--0--0--0--0--0--0--0--0--0--|


  PM PM PM PM    PM PM PM    PM PM PM PM        PM PM PM  
  E  E  E  E  E  E  E  E     S  S  E  E  Q.     S  S  E   
--------------------------|------------------------------|
--------------------------|------------------------------|
--------------------------|------------------------------|
--------------------------|------------------------------|
--0--0--0--0-----0--0--0--|--0--0--0--0---------0--0--0--|
--0--0--0--0-----0--0--0--|--0--0--0--0---------0--0--0--|


  PM PM PM PM    PM PM PM    PM PM PM PM PM PM PM PM PM PM  
  E  E  E  E  E  E  E  E     S  S  E  E  S  S  E  E  E  E   
--------------------------|--------------------------------|
--------------------------|--------------------------------|
--------------------------|--------------------------------|
--------------------------|--------------------------------|
--0--0--0--0-----0--0--0--|--0--0--0--0--0--0--0--0--0--0--|
--0--0--0--0-----0--0--0--|--0--0--0--0--0--0--0--0--0--0--|


  PM             PM       PM    PM PM      PM       PM    PM PM    PM    PM  
  E  H        E  E  E     E  E  E  E  Q    E  E     E  E  E  E  E  E  E  E   
-----------------------|-------------------------|--------------------------|
-----------------------|-------------------------|--------------------------|
-----------------------|-------------------------|--------------------------|
--0--------------0-----|--0-----0--0-------0-----|--0-----0--0-----0-----0--|
--0--------------0-----|--0-----0--0-------0-----|--0-----0--0-----0-----0--|
--0--------------0-----|--0-----0--0-------0-----|--0-----0--0-----0-----0--|


     PM PM    PM PM PM PM    PM             PM       PM    PM PM      PM     
  E  E  E  E  E  E  E  E     E  H        E  E  E     E  E  E  E  Q    E  E   
--------------------------|-----------------------|-------------------------|
--------------------------|-----------------------|-------------------------|
--------------------------|-----------------------|-------------------------|
-----0--0-----0--0--0--0--|--0--------------0-----|--0-----0--0-------0-----|
-----0--0-----0--0--0--0--|--0--------------0-----|--0-----0--0-------0-----|
-----0--0-----0--0--0--0--|--0--------------0-----|--0-----0--0-------0-----|


  PM    PM PM    PM    PM       PM PM    PM PM PM PM    PM             PM     
  E  E  E  E  E  E  E  E     E  E  E  E  E  E  E  E     E  H        E  E  E   
--------------------------|--------------------------|-----------------------|
--------------------------|--------------------------|-----------------------|
--------------------------|--------------------------|-----------------------|
--0-----0--0-----0-----0--|-----0--0-----0--0--0--0--|--0--------------0-----|
--0-----0--0-----0-----0--|-----0--0-----0--0--0--0--|--0--------------0-----|
--0-----0--0-----0-----0--|-----0--0-----0--0--0--0--|--0--------------0-----|


  PM    PM PM      PM       PM    PM PM    PM    PM       PM PM    PM PM PM PM  
  E  E  E  E  Q    E  E     E  E  E  E  E  E  E  E     E  E  E  E  E  E  E  E   
-------------------------|--------------------------|--------------------------|
-------------------------|--------------------------|--------------------------|
-------------------------|--------------------------|--------------------------|
--0-----0--0-------0-----|--0-----0--0-----0-----0--|-----0--0-----0--0--0--0--|
--0-----0--0-------0-----|--0-----0--0-----0-----0--|-----0--0-----0--0--0--0--|
--0-----0--0-------0-----|--0-----0--0-----0-----0--|-----0--0-----0--0--0--0--|


  PM             PM       PM    PM PM      PM       PM    PM PM    PM    PM  
  E  H        E  E  E     E  E  E  E  Q    E  E     E  E  E  E  E  E  E  E   
-----------------------|-------------------------|--------------------------|
-----------------------|-------------------------|--------------------------|
-----------------------|-------------------------|--------------------------|
--0--------------0-----|--0-----0--0-------0-----|--0-----0--0-----0-----0--|
--0--------------0-----|--0-----0--0-------0-----|--0-----0--0-----0-----0--|
--0--------------0-----|--0-----0--0-------0-----|--0-----0--0-----0-----0--|


     PM PM    PM PM PM PM                                          
  E  E  E  E  E  E  E  E     W                   W                 
--------------------------|-------------------|-------------------|
--------------------------|-------------------|-------------------|
--------------------------|-------------------|-------------------|
-----0--0-----0--0--0--0--|-------------------|-------------------|
-----0--0-----0--0--0--0--|-------------------|-------------------|
-----0--0-----0--0--0--0--|-------------------|-------------------|


  W                   W                   E  E  Q.     E  E  E   
-------------------|-------------------|------------------------|
-------------------|-------------------|------------------------|
-------------------|-------------------|------------------------|
-------------------|-------------------|--0--0---------0-----0--|
-------------------|-------------------|--0--0---------0-----0--|
-------------------|-------------------|--0--0---------0-----0--|


  H        E  E  E  E     E  E  E  Q    E  E  E     E  E  E  H        E   
-----------------------|-------------------------|-----------------------|
-----------------------|-------------------------|-----------------------|
-----------------------|-------------------------|-----------------------|
--------------0--0-----|--0--0--0-------0-----0--|-----0--0--------------|
--------------0--0-----|--0--0--0-------0-----0--|-----0--0--------------|
--------------0--0-----|--0--0--0-------0-----0--|-----0--0--------------|


  E  E  Q.     E  E  E     H        E  E  E  E     E  E  E  Q    E  E  E   
------------------------|-----------------------|-------------------------|
------------------------|-----------------------|-------------------------|
------------------------|-----------------------|-------------------------|
--0--0---------0-----0--|--------------0--0-----|--0--0--0-------0-----0--|
--0--0---------0-----0--|--------------0--0-----|--0--0--0-------0-----0--|
--0--0---------0-----0--|--------------0--0-----|--0--0--0-------0-----0--|


  E  E  E  H        E     W                   W                 
-----------------------|-------------------|-------------------|
-----------------------|-------------------|-------------------|
-----------------------|-------------------|-------------------|
-----0--0--------------|--0----------------|--L----------------|
-----0--0--------------|--0----------------|--L----------------|
-----0--0--------------|--0----------------|--L----------------|


                             PM PM PM                                   
  W                   Q.     E  E  E  Q        E  E  E  E  E  E  E  E   
-------------------|------------------------|--------------------------|
-------------------|------------------------|--------------------------|
-------------------|------------------------|--------------------------|
--L----------------|--L------0--0--8--7\----|--3--3--3--3--3--3--3--3--|
--L----------------|--L------0--0--8--7\----|--3--3--3--3--3--3--3--3--|
--L----------------|--L------0--0--8--7\----|--3--3--3--3--3--3--3--3--|


  E  E  E  E  E  E  E  E     E  E  E  E  E  E  E  E   
--------------------------|--------------------------|
--------------------------|--------------------------|
--------------------------|--------------------------|
--3--3--3--3--3--3--3--3--|--5--5--5--5--5--5--5--5--|
--3--3--3--3--3--3--3--3--|--5--5--5--5--5--5--5--5--|
--3--3--3--3--3--3--3--3--|--5--5--5--5--5--5--5--5--|


                             PM PM PM PM    PM PM PM  
  E  E  E  E  E  E  E  E     E  E  E  E  E  E  E  E   
--------------------------|--------------------------|
--------------------------|--------------------------|
--------------------------|--------------------------|
--5--5--5--5--5--5--5--5--|--------------------------|
--5--5--5--5--5--5--5--5--|--0--0--0--0-----0--0--0--|
--5--5--5--5--5--5--5--5--|--0--0--0--0-----0--0--0--|


  PM PM PM PM        PM PM PM    PM PM PM PM    PM PM PM  
  S  S  E  E  Q.     S  S  E     E  E  E  E  E  E  E  E   
------------------------------|--------------------------|
------------------------------|--------------------------|
------------------------------|--------------------------|
------------------------------|--------------------------|
--0--0--0--0---------0--0--0--|--0--0--0--0-----0--0--0--|
--0--0--0--0---------0--0--0--|--0--0--0--0-----0--0--0--|


  PM PM PM PM PM PM PM PM PM PM                             
  S  S  E  E  S  S  E  E  E  E     E  E  E  E  E  E  E  E   
--------------------------------|--------------------------|
--------------------------------|--------------------------|
--------------------------------|--------------------------|
--------------------------------|--3--3--3--3--3--3--3--3--|
--0--0--0--0--0--0--0--0--0--0--|--3--3--3--3--3--3--3--3--|
--0--0--0--0--0--0--0--0--0--0--|--3--3--3--3--3--3--3--3--|


  E  E  E  E  E  E  E  E     E  E  E  E  E  E  E  E   
--------------------------|--------------------------|
--------------------------|--------------------------|
--------------------------|--------------------------|
--3--3--3--3--3--3--3--3--|--5--5--5--5--5--5--5--5--|
--3--3--3--3--3--3--3--3--|--5--5--5--5--5--5--5--5--|
--3--3--3--3--3--3--3--3--|--5--5--5--5--5--5--5--5--|


                             PM PM PM PM    PM PM PM  
  E  E  E  E  E  E  E  E     E  E  E  E  E  E  E  E   
--------------------------|--------------------------|
--------------------------|--------------------------|
--------------------------|--------------------------|
--5--5--5--5--5--5--5--5--|--------------------------|
--5--5--5--5--5--5--5--5--|--0--0--0--0-----0--0--0--|
--5--5--5--5--5--5--5--5--|--0--0--0--0-----0--0--0--|


  PM PM PM PM        PM PM PM    PM PM PM PM    PM PM PM  
  S  S  E  E  Q.     S  S  E     E  E  E  E  E  E  E  E   
------------------------------|--------------------------|
------------------------------|--------------------------|
------------------------------|--------------------------|
------------------------------|--------------------------|
--0--0--0--0---------0--0--0--|--0--0--0--0-----0--0--0--|
--0--0--0--0---------0--0--0--|--0--0--0--0-----0--0--0--|


  PM PM PM PM PM PM PM PM PM PM                                             
  S  S  E  E  S  S  E  E  E  E      Q     H.              W                 
--------------------------------|----------------------|-------------------|
--------------------------------|----------------------|-------------------|
--------------------------------|----------------------|-------------------|
--------------------------------|--12\-----------------|-------------------|
--0--0--0--0--0--0--0--0--0--0--|--12\-----------------|-------------------|
--0--0--0--0--0--0--0--0--0--0--|--12\-----------------|-------------------|


  W                   W                   W                   W                 
-------------------|-------------------|-------------------|-------------------|
-------------------|-------------------|-------------------|-------------------|
-------------------|-------------------|-------------------|-------------------|
-------------------|-------------------|--0----------------|--L----------------|
-------------------|-------------------|--0----------------|--L----------------|
-------------------|-------------------|--0----------------|--L----------------|


                                               PM PM    PM PM PM      
  W                   H         H           E  E  E  E  E  E  E  E    
-------------------|---------------------|---------------------------|
-------------------|---------------------|---------------------------|
-------------------|---------------------|---------------------------|
--L----------------|--3--------10--------|--3--------5-----------3S--|
--L----------------|--3--------10--------|--3--------5-----------3S--|
--L----------------|--3--------10--------|--3--0--0--5--0--0--0--3S--|


     PM PM    PM    PM          PM PM    PM PM PM      
  E  E  E  E  E  E  E  E     E  E  E  E  E  E  E  E    
--------------------------|---------------------------|
--------------------------|---------------------------|
--------------------------|---------------------------|
--5--------5-----7-----0--|--3--------5-----------3S--|
--5--------5-----7-----0--|--3--------5-----------3S--|
--5--0--0--5--0--7--0--0--|--3--0--0--5--0--0--0--3S--|


     PM PM    PM    PM          PM PM    PM PM PM      
  E  E  E  E  E  E  E  E     E  E  E  E  E  E  E  E    
--------------------------|---------------------------|
--------------------------|---------------------------|
--------------------------|---------------------------|
--5--------7-----8-----0--|--3--------5-----------3S--|
--5--------7-----8-----0--|--3--------5-----------3S--|
--5--0--0--7--0--8--0--0--|--3--0--0--5--0--0--0--3S--|


     PM PM    PM    PM          PM PM    PM PM PM      
  E  E  E  E  E  E  E  E     E  E  E  E  E  E  E  E    
--------------------------|---------------------------|
--------------------------|---------------------------|
--------------------------|---------------------------|
--5--------5-----7-----0--|--3--------5-----------3S--|
--5--------5-----7-----0--|--3--------5-----------3S--|
--5--0--0--5--0--7--0--0--|--3--0--0--5--0--0--0--3S--|


     PM PM    PM    PM          PM PM    PM PM PM      
  E  E  E  E  E  E  E  E     E  E  E  E  E  E  E  E    
--------------------------|---------------------------|
--------------------------|---------------------------|
--------------------------|---------------------------|
--5--------7-----8-----0--|--3--------5-----------3S--|
--5--------7-----8-----0--|--3--------5-----------3S--|
--5--0--0--7--0--8--0--0--|--3--0--0--5--0--0--0--3S--|


     PM PM    PM    PM          PM PM    PM PM PM      
  E  E  E  E  E  E  E  E     E  E  E  E  E  E  E  E    
--------------------------|---------------------------|
--------------------------|---------------------------|
--------------------------|---------------------------|
--5--------5-----7-----0--|--3--------5-----------3S--|
--5--------5-----7-----0--|--3--------5-----------3S--|
--5--0--0--5--0--7--0--0--|--3--0--0--5--0--0--0--3S--|


     PM PM    PM    PM          PM PM    PM PM PM      
  E  E  E  E  E  E  E  E     E  E  E  E  E  E  E  E    
--------------------------|---------------------------|
--------------------------|---------------------------|
--------------------------|---------------------------|
--5--------7-----8-----0--|--3--------5-----------3S--|
--5--------7-----8-----0--|--3--------5-----------3S--|
--5--0--0--7--0--8--0--0--|--3--0--0--5--0--0--0--3S--|


     PM PM    PM    PM          PM PM    PM PM PM      
  E  E  E  E  E  E  E  E     E  E  E  E  E  E  E  E    
--------------------------|---------------------------|
--------------------------|---------------------------|
--------------------------|---------------------------|
--5--------5-----7-----0--|--3--------5-----------3S--|
--5--------5-----7-----0--|--3--------5-----------3S--|
--5--0--0--5--0--7--0--0--|--3--0--0--5--0--0--0--3S--|


     PM PM    PM    PM       PM             PM       PM    PM PM      PM     
  E  E  E  E  E  E  E  E     E  H        E  E  E     E  E  E  E  Q    E  E   
--------------------------|-----------------------|-------------------------|
--------------------------|-----------------------|-------------------------|
--------------------------|-----------------------|-------------------------|
--5--------7-----8-----0--|--0--------------0-----|--0-----0--0-------0-----|
--5--------7-----8-----0--|--0--------------0-----|--0-----0--0-------0-----|
--5--0--0--7--0--8--0--0--|--0--------------0-----|--0-----0--0-------0-----|


  PM    PM PM    PM    PM       PM PM    PM PM PM PM                      
  E  E  E  E  E  E  E  E     E  E  E  E  E  E  E  E     W                 
--------------------------|--------------------------|-------------------|
--------------------------|--------------------------|-------------------|
--------------------------|--------------------------|-------------------|
--0-----0--0-----0-----0--|-----0--0-----0--0--0--0--|-------------------|
--0-----0--0-----0-----0--|-----0--0-----0--0--0--0--|-------------------|
--0-----0--0-----0-----0--|-----0--0-----0--0--0--0--|-------------------|


  E  E  E  E  E  E  E  E     E  E  E  E  E  E  E  E   
--------------------------|--------------------------|
--------------------------|--------------------------|
--------------------------|--------------------------|
--3--3--3--3--3--3--3--3--|--3--3--3--3--3--3--3--3--|
--3--3--3--3--3--3--3--3--|--3--3--3--3--3--3--3--3--|
--3--3--3--3--3--3--3--3--|--3--3--3--3--3--3--3--3--|


  E  E  E  E  E  E  E  E     E  E  E  E  E  E  E  E   
--------------------------|--------------------------|
--------------------------|--------------------------|
--------------------------|--------------------------|
--5--5--5--5--5--5--5--5--|--5--5--5--5--5--5--5--5--|
--5--5--5--5--5--5--5--5--|--5--5--5--5--5--5--5--5--|
--5--5--5--5--5--5--5--5--|--5--5--5--5--5--5--5--5--|


  PM PM PM PM    PM PM PM    PM PM PM PM        PM PM PM  
  E  E  E  E  E  E  E  E     S  S  E  E  Q.     S  S  E   
--------------------------|------------------------------|
--------------------------|------------------------------|
--------------------------|------------------------------|
--------------------------|------------------------------|
--0--0--0--0-----0--0--0--|--0--0--0--0---------0--0--0--|
--0--0--0--0-----0--0--0--|--0--0--0--0---------0--0--0--|


  PM PM PM PM    PM PM PM    PM PM PM PM PM PM PM PM PM PM  
  E  E  E  E  E  E  E  E     S  S  E  E  S  S  E  E  E  E   
--------------------------|--------------------------------|
--------------------------|--------------------------------|
--------------------------|--------------------------------|
--------------------------|--------------------------------|
--0--0--0--0-----0--0--0--|--0--0--0--0--0--0--0--0--0--0--|
--0--0--0--0-----0--0--0--|--0--0--0--0--0--0--0--0--0--0--|


  E  E  E  E  E  E  E  E     E  E  E  E  E  E  E  E   
--------------------------|--------------------------|
--------------------------|--------------------------|
--------------------------|--------------------------|
--3--3--3--3--3--3--3--3--|--3--3--3--3--3--3--3--3--|
--3--3--3--3--3--3--3--3--|--3--3--3--3--3--3--3--3--|
--3--3--3--3--3--3--3--3--|--3--3--3--3--3--3--3--3--|


  E  E  E  E  E  E  E  E     E  E  E  E  E  E  E  E   
--------------------------|--------------------------|
--------------------------|--------------------------|
--------------------------|--------------------------|
--5--5--5--5--5--5--5--5--|--5--5--5--5--5--5--5--5--|
--5--5--5--5--5--5--5--5--|--5--5--5--5--5--5--5--5--|
--5--5--5--5--5--5--5--5--|--5--5--5--5--5--5--5--5--|


  PM PM PM PM    PM PM PM    PM PM PM PM        PM PM PM  
  E  E  E  E  E  E  E  E     S  S  E  E  Q.     S  S  E   
--------------------------|------------------------------|
--------------------------|------------------------------|
--------------------------|------------------------------|
--------------------------|------------------------------|
--0--0--0--0-----0--0--0--|--0--0--0--0---------0--0--0--|
--0--0--0--0-----0--0--0--|--0--0--0--0---------0--0--0--|


  PM PM PM PM    PM PM PM    PM PM PM PM PM PM PM PM PM PM  
  E  E  E  E  E  E  E  E     S  S  E  E  S  S  E  E  E  E   
--------------------------|--------------------------------|
--------------------------|--------------------------------|
--------------------------|--------------------------------|
--------------------------|--------------------------------|
--0--0--0--0-----0--0--0--|--0--0--0--0--0--0--0--0--0--0--|
--0--0--0--0-----0--0--0--|--0--0--0--0--0--0--0--0--0--0--|


  E  H        E  E  E     E  H        E  E  E     E  H        E  E  E   
-----------------------|-----------------------|-----------------------|
-----------------------|-----------------------|-----------------------|
-----------------------|-----------------------|-----------------------|
--5-----------0--0-----|--------------0--0-----|--------------3--3-----|
--5-----------0--0-----|--------------0--0-----|--------------3--3-----|
--5-----------0--0-----|--------------0--0-----|--------------3--3-----|


  E  E  E  E  E  E  E  E     E  H        E  E  E     E  H        E  E  E   
--------------------------|-----------------------|-----------------------|
--------------------------|-----------------------|-----------------------|
--------------------------|-----------------------|-----------------------|
--7--0--0--5--0--0--3--0--|--5-----------0--0-----|--------------0--0-----|
--7--0--0--5--0--0--3--0--|--5-----------0--0-----|--------------0--0-----|
--7--0--0--5--0--0--3--0--|--5-----------0--0-----|--------------0--0-----|


  E  H        E  E  E     E  E  E  E  E  E  E  E     E  H        E  E  E   
-----------------------|--------------------------|-----------------------|
-----------------------|--------------------------|-----------------------|
-----------------------|--------------------------|-----------------------|
--------------3--3-----|--7--0--0--5--0--0--3--0--|--5-----------0--0-----|
--------------3--3-----|--7--0--0--5--0--0--3--0--|--5-----------0--0-----|
--------------3--3-----|--7--0--0--5--0--0--3--0--|--5-----------0--0-----|


  E  H        E  E  E     E  H        E  E  E     E  E  E  E  E  E  E  E   
-----------------------|-----------------------|--------------------------|
-----------------------|-----------------------|--------------------------|
-----------------------|-----------------------|--------------------------|
--------------0--0-----|--------------3--3-----|--7--0--0--5--0--0--3--0--|
--------------0--0-----|--------------3--3-----|--7--0--0--5--0--0--3--0--|
--------------0--0-----|--------------3--3-----|--7--0--0--5--0--0--3--0--|


  E  H        E  E  E     E  H        E  E  E     E  H        E  E  E   
-----------------------|-----------------------|-----------------------|
-----------------------|-----------------------|-----------------------|
-----------------------|-----------------------|-----------------------|
--5-----------0--0-----|--------------0--0-----|--------------3--3-----|
--5-----------0--0-----|--------------0--0-----|--------------3--3-----|
--5-----------0--0-----|--------------0--0-----|--------------3--3-----|


                             PM PM PM PM    PM PM PM  
  E  E  E  E  E  E  E  E     E  E  E  E  E  E  E  E   
--------------------------|--------------------------|
--------------------------|--------------------------|
--------------------------|--------------------------|
--7--0--0--5--0--0--3--0--|--------------------------|
--7--0--0--5--0--0--3--0--|--0--0--0--0-----0--0--0--|
--7--0--0--5--0--0--3--0--|--0--0--0--0-----0--0--0--|


  PM PM PM PM PM PM PM PM PM PM   
  S  S  E  E  S  S  E  E  E  E    
--------------------------------||
--------------------------------||
--------------------------------||
--------------------------------||
--0--0--0--0--0--0--0--0--0--0--||
--0--0--0--0--0--0--0--0--0--0--||



Right Guitar



     E  H        E  E  E     E  H        E  E  E     E  H        E  E  E   
D||-----------------------|-----------------------|-----------------------|
A||-----------------------|-----------------------|-----------------------|
F||-----------------------|-----------------------|-----------------------|
C||--5-----------0--0-----|--------------0--0-----|--------------3--3-----|
G||--5-----------0--0-----|--------------0--0-----|--------------3--3-----|
C||--5-----------0--0-----|--------------0--0-----|--------------3--3-----|


  E  E  E  E  E  E  E  E     E  H        E  E  E     E  H        E  E  E   
--------------------------|-----------------------|-----------------------|
--------------------------|-----------------------|-----------------------|
--------------------------|-----------------------|-----------------------|
--7--0--0--5--0--0--3--0--|--5-----------0--0-----|--------------0--0-----|
--7--0--0--5--0--0--3--0--|--5-----------0--0-----|--------------0--0-----|
--7--0--0--5--0--0--3--0--|--5-----------0--0-----|--------------0--0-----|


  E  H        E  E  E     E  E  E  E  E  E  E  E     E  H        E  E  E   
-----------------------|--------------------------|-----------------------|
-----------------------|--------------------------|-----------------------|
-----------------------|--------------------------|-----------------------|
--------------3--3-----|--7--0--0--5--0--0--3--0--|--5-----------0--0-----|
--------------3--3-----|--7--0--0--5--0--0--3--0--|--5-----------0--0-----|
--------------3--3-----|--7--0--0--5--0--0--3--0--|--5-----------0--0-----|


  E  H        E  E  E     E  H        E  E  E     E  E  E  E  E  E  E  E   
-----------------------|-----------------------|--------------------------|
-----------------------|-----------------------|--------------------------|
-----------------------|-----------------------|--------------------------|
--------------0--0-----|--------------3--3-----|--7--0--0--5--0--0--3--0--|
--------------0--0-----|--------------3--3-----|--7--0--0--5--0--0--3--0--|
--------------0--0-----|--------------3--3-----|--7--0--0--5--0--0--3--0--|


  E  H        E  E  E     E  H        E  E  E     E  H        E  E  E   
-----------------------|-----------------------|-----------------------|
---------------
Добавлено: 25.04.2012
Вам также может быть интересно:
Другие материалы по этой песне:

Страница создана 25.04.2012
http://primanota.ru/drop-dead/the-arc-chords.htm
Привет, Гость.
Предлагаем пройти революционный курс по гитаре.
Подарок от PrimaNota.Ru, забирай!