PrimaNota.ru - самый крупный в мире бесплатный архив песенных текстов, аккордов, табулатур и нот


Drop Dead - Luxuria - таба, бас-таба, драм-таба, видео

Регистрация Запомнить меня
Войти через:  Facebook Google Twitter Vk Yandex Mail.ru

Drop Dead - Luxuria - таба, бас-таба, драм-таба, видео

Печатать
Просмотров: 156
Luxuria
Drop Dead
Drop Dead
Kwonnie - kwonnie@live.com

Rhythm Guitar (Acoustic)



     E  E  E  E  E  E  E  E     E  E  E  E  S  S  E  E  E   
D||-----------1--------3-----|-----0--------0h-1p-0--------|
A||--------3-----3--------3--|--------3--------------3-----|
F||-----2-----------2--------|--2--------2--------------2--|
C||--0-----------------------|-----------------------------|
G||--------------------------|-----------------------------|
C||--------------------------|-----------------------------|


  E  E  E  E  E  E  E  E     E  E  E  Q    T  T  S E   E   
--------------------------|-----------3----0h-1p-0--------|
--------3--------3--------|--------1---------------1h--3--|
-----0--------0--------0--|-----0-------------------------|
--3--------3--------3-----|--2----------------------------|
--------------------------|-------------------------------|
--------------------------|-------------------------------|


  E  E  E  E  E  E  E  E     E  E  E  E  S  S  E  E  E   
-----------1--------3-----|-----0--------0h-1p-0--------|
--------3-----3--------3--|--------3--------------3-----|
-----2-----------2--------|--2--------2--------------2--|
--0-----------------------|-----------------------------|
--------------------------|-----------------------------|
--------------------------|-----------------------------|


  E  E  E  E  E  E  E  E     E  E  E  Q    T  T  S E   E   
--------------------------|-----------3----0h-1p-0--------|
--------3--------3--------|--------1---------------1h--3--|
-----0--------0--------0--|-----0-------------------------|
--3--------3--------3-----|--2----------------------------|
--------------------------|-------------------------------|
--------------------------|-------------------------------|


  E  E  E  E  E  E  E  E     E  E  E  E  S  S  E  E  E   
-----------1--------3-----|-----0--------0h-1p-0--------|
--------3-----3--------3--|--------3--------------3-----|
-----2-----------2--------|--2--------2--------------2--|
--0-----------------------|-----------------------------|
--------------------------|-----------------------------|
--------------------------|-----------------------------|


  E  E  E  E  E  E  E  E     E  E  E  Q    T  T  S E   E   
--------------------------|-----------3----0h-1p-0--------|
--------3--------3--------|--------1---------------1h--3--|
-----0--------0--------0--|-----0-------------------------|
--3--------3--------3-----|--2----------------------------|
--------------------------|-------------------------------|
--------------------------|-------------------------------|


  E  E  E  E  E  E  E  E     E  E  E  E  S  S  E  E  E   
-----------1--------3-----|-----0--------0h-1p-0--------|
--------3-----3--------3--|--------3--------------3-----|
-----2-----------2--------|--2--------2--------------2--|
--0-----------------------|-----------------------------|
--------------------------|-----------------------------|
--------------------------|-----------------------------|


  E  E  E  E  E  E  E  E     E  E  E  Q    T  T  S E   E   
--------------------------|-----------3----0h-1p-0--------|
--------3--------3--------|--------1---------------1h--3--|
-----0--------0--------0--|-----0-------------------------|
--3--------3--------3-----|--2----------------------------|
--------------------------|-------------------------------|
--------------------------|-------------------------------|


  E  E  E  E  E  E  E  E     E  E  E  E  S  S  E  E  E   
-----------1--------3-----|-----0--------0h-1p-0--------|
--------3-----3--------3--|--------3--------------3-----|
-----2-----------2--------|--2--------2--------------2--|
--0-----------------------|-----------------------------|
--------------------------|-----------------------------|
--------------------------|-----------------------------|


  E  E  E  E  E  E  E  E     E  E  E  Q    T  T  S E   E   
--------------------------|-----------3----0h-1p-0--------|
--------3--------3--------|--------1---------------1h--3--|
-----0--------0--------0--|-----0-------------------------|
--3--------3--------3-----|--2----------------------------|
--------------------------|-------------------------------|
--------------------------|-------------------------------|


  E  E  E  E  E  E  E  E     E  E  E  E  S  S  E  E  E   
-----------1--------3-----|-----0--------0h-1p-0--------|
--------3-----3--------3--|--------3--------------3-----|
-----2-----------2--------|--2--------2--------------2--|
--0-----------------------|-----------------------------|
--------------------------|-----------------------------|
--------------------------|-----------------------------|


  E  E  E  E  E  E  E  E     E  E  E  Q    T  T  S E   E   
--------------------------|-----------3----0h-1p-0--------|
--------3--------3--------|--------1---------------1h--3--|
-----0--------0--------0--|-----0-------------------------|
--3--------3--------3-----|--2----------------------------|
--------------------------|-------------------------------|
--------------------------|-------------------------------|


                                                          |-----3----|     
   H.            Q        H        Q    Q        H        Q     Q    Q     
----------------10----|----------------------|----------------------------|
--10------------------|--10--------8---------|------------8---------------|
----------------------|-----------------9----|--10-------------10----9----|
----------------------|----------------------|----------------------------|
----------------------|----------------------|----------------------------|
----------------------|----------------------|----------------------------|


  H         H            H.            Q        H        Q    Q     
---------------------|----------------10----|----------------------|
---------------------|--10------------------|--10--------8---------|
--7------------------|----------------------|-----------------9----|
-----------10--------|----------------------|----------------------|
---------------------|----------------------|----------------------|
---------------------|----------------------|----------------------|


            |-----3----|                                               
   H        Q     Q    Q       H         H           W                 
----------------------------|---------------------|-------------------|
------------8---------------|---------------------|-------------------|
--10-------------10----9----|--7------------------|-------------------|
----------------------------|-----------10--------|-------------------|
----------------------------|---------------------|-------------------|
----------------------------|---------------------|-------------------|


  W                   W                   W                   W                 
-------------------|-------------------|-------------------|-------------------|
-------------------|-------------------|-------------------|-------------------|
-------------------|-------------------|-------------------|-------------------|
-------------------|-------------------|-------------------|-------------------|
-------------------|-------------------|-------------------|-------------------|
-------------------|-------------------|-------------------|-------------------|


  W                   W                   W                   W                 
-------------------|-------------------|-------------------|-------------------|
-------------------|-------------------|-------------------|-------------------|
-------------------|-------------------|-------------------|-------------------|
-------------------|-------------------|-------------------|-------------------|
-------------------|-------------------|-------------------|-------------------|
-------------------|-------------------|-------------------|-------------------|


  W                   W                   W                   W                 
-------------------|-------------------|-------------------|-------------------|
-------------------|-------------------|-------------------|-------------------|
-------------------|-------------------|-------------------|-------------------|
-------------------|-------------------|-------------------|-------------------|
-------------------|-------------------|-------------------|-------------------|
-------------------|-------------------|-------------------|-------------------|


  W                   W                   W                   W                 
-------------------|-------------------|-------------------|-------------------|
-------------------|-------------------|-------------------|-------------------|
-------------------|-------------------|-------------------|-------------------|
-------------------|-------------------|-------------------|-------------------|
-------------------|-------------------|-------------------|-------------------|
-------------------|-------------------|-------------------|-------------------|


  W                   W                   W                   W                 
-------------------|-------------------|-------------------|-------------------|
-------------------|-------------------|-------------------|-------------------|
-------------------|-------------------|-------------------|-------------------|
-------------------|-------------------|-------------------|-------------------|
-------------------|-------------------|-------------------|-------------------|
-------------------|-------------------|-------------------|-------------------|


  W                   W                   W                   W                 
-------------------|-------------------|-------------------|-------------------|
-------------------|-------------------|-------------------|-------------------|
-------------------|-------------------|-------------------|-------------------|
-------------------|-------------------|-------------------|-------------------|
-------------------|-------------------|-------------------|-------------------|
-------------------|-------------------|-------------------|-------------------|


  W                   W                   W                   W                 
-------------------|-------------------|-------------------|-------------------|
-------------------|-------------------|-------------------|-------------------|
-------------------|-------------------|-------------------|-------------------|
-------------------|-------------------|-------------------|-------------------|
-------------------|-------------------|-------------------|-------------------|
-------------------|-------------------|-------------------|-------------------|


  W                   W                   W                   W                 
-------------------|-------------------|-------------------|-------------------|
-------------------|-------------------|-------------------|-------------------|
-------------------|-------------------|-------------------|-------------------|
-------------------|-------------------|-------------------|-------------------|
-------------------|-------------------|-------------------|-------------------|
-------------------|-------------------|-------------------|-------------------|


  W                   W                   W                   W                 
-------------------|-------------------|-------------------|-------------------|
-------------------|-------------------|-------------------|-------------------|
-------------------|-------------------|-------------------|-------------------|
-------------------|-------------------|-------------------|-------------------|
-------------------|-------------------|-------------------|-------------------|
-------------------|-------------------|-------------------|-------------------|


  W                   W                   W                   W                 
-------------------|-------------------|-------------------|-------------------|
-------------------|-------------------|-------------------|-------------------|
-------------------|-------------------|-------------------|-------------------|
-------------------|-------------------|-------------------|-------------------|
-------------------|-------------------|-------------------|-------------------|
-------------------|-------------------|-------------------|-------------------|


  W                   W                   W                   W                 
-------------------|-------------------|-------------------|-------------------|
-------------------|-------------------|-------------------|-------------------|
-------------------|-------------------|-------------------|-------------------|
-------------------|-------------------|-------------------|-------------------|
-------------------|-------------------|-------------------|-------------------|
-------------------|-------------------|-------------------|-------------------|


  W                   W                   W                   W                 
-------------------|-------------------|-------------------|-------------------|
-------------------|-------------------|-------------------|-------------------|
-------------------|-------------------|-------------------|-------------------|
-------------------|-------------------|-------------------|-------------------|
-------------------|-------------------|-------------------|-------------------|
-------------------|-------------------|-------------------|-------------------|


  W                   W                   W                   W                 
-------------------|-------------------|-------------------|-------------------|
-------------------|-------------------|-------------------|-------------------|
-------------------|-------------------|-------------------|-------------------|
-------------------|-------------------|-------------------|-------------------|
-------------------|-------------------|-------------------|-------------------|
-------------------|-------------------|-------------------|-------------------|


  W                   W                   W                   W                 
-------------------|-------------------|-------------------|-------------------|
-------------------|-------------------|-------------------|-------------------|
-------------------|-------------------|-------------------|-------------------|
-------------------|-------------------|-------------------|-------------------|
-------------------|-------------------|-------------------|-------------------|
-------------------|-------------------|-------------------|-------------------|


  W                   W                   W                   W                 
-------------------|-------------------|-------------------|-------------------|
-------------------|-------------------|-------------------|-------------------|
-------------------|-------------------|-------------------|-------------------|
-------------------|-------------------|-------------------|-------------------|
-------------------|-------------------|-------------------|-------------------|
-------------------|-------------------|-------------------|-------------------|


  W                   W                   W                   W                 
-------------------|-------------------|-------------------|-------------------|
-------------------|-------------------|-------------------|-------------------|
-------------------|-------------------|-------------------|-------------------|
-------------------|-------------------|-------------------|-------------------|
-------------------|-------------------|-------------------|-------------------|
-------------------|-------------------|-------------------|-------------------|


  W                   W                   W                   W                 
-------------------|-------------------|-------------------|-------------------|
-------------------|-------------------|-------------------|-------------------|
-------------------|-------------------|-------------------|-------------------|
-------------------|-------------------|-------------------|-------------------|
-------------------|-------------------|-------------------|-------------------|
-------------------|-------------------|-------------------|-------------------|


  W                   W                   W                   W                 
-------------------|-------------------|-------------------|-------------------|
-------------------|-------------------|-------------------|-------------------|
-------------------|-------------------|-------------------|-------------------|
-------------------|-------------------|-------------------|-------------------|
-------------------|-------------------|-------------------|-------------------|
-------------------|-------------------|-------------------|-------------------|


  W                   W                   W                   W                 
-------------------|-------------------|-------------------|-------------------|
-------------------|-------------------|-------------------|-------------------|
-------------------|-------------------|-------------------|-------------------|
-------------------|-------------------|-------------------|-------------------|
-------------------|-------------------|-------------------|-------------------|
-------------------|-------------------|-------------------|-------------------|


  W                   W                   W                   W                 
-------------------|-------------------|-------------------|-------------------|
-------------------|-------------------|-------------------|-------------------|
-------------------|-------------------|-------------------|-------------------|
-------------------|-------------------|-------------------|-------------------|
-------------------|-------------------|-------------------|-------------------|
-------------------|-------------------|-------------------|-------------------|


  W                   W                   W                   W                 
-------------------|-------------------|-------------------|-------------------|
-------------------|-------------------|-------------------|-------------------|
-------------------|-------------------|-------------------|-------------------|
-------------------|-------------------|-------------------|-------------------|
-------------------|-------------------|-------------------|-------------------|
-------------------|-------------------|-------------------|-------------------|


  W                   W                   W                   W                 
-------------------|-------------------|-------------------|-------------------|
-------------------|-------------------|-------------------|-------------------|
-------------------|-------------------|-------------------|-------------------|
-------------------|-------------------|-------------------|-------------------|
-------------------|-------------------|-------------------|-------------------|
-------------------|-------------------|-------------------|-------------------|


  W                   W                   W                 
-------------------|-------------------|-------------------|
-------------------|-------------------|-------------------|
-------------------|-------------------|-------------------|
-------------------|-------------------|-------------------|
-------------------|-------------------|-------------------|
-------------------|-------------------|-------------------|


   S S S  S S S  S S  S S S  S S S  S S    S S S S S S S S S S S S S S S S  
----------------------------------------|----------------------------------|
----------------------------------------|----------------------------------|
----------------------------------------|----------------------------------|
--10-----10-----10---10-----10-----10---|--7-----7-----7---7-----7-----7---|
-------8------8-----------8------8------|------8-----8---------8-----8-----|
-----7------7------7----7------7------7-|----7-----7-----7---7-----7-----7-|


   S S S  S S S  S S  S S S  S S S  S S    S S S S S S S S S S S S S S S S  
----------------------------------------|----------------------------------|
----------------------------------------|----------------------------------|
----------------------------------------|----------------------------------|
--10-----10-----10---10-----10-----10---|--5-----5-----5---2-----2-----2---|
-------8------8-----------8------8------|------3-----3---------3-----3-----|
-----7------7------7----7------7------7-|----5-----5-----5---5-----5-----5-|


   S S S  S S S  S S  S S S  S S S  S S    S S S S S S S S S S S S S S S S  
----------------------------------------|----------------------------------|
----------------------------------------|----------------------------------|
----------------------------------------|----------------------------------|
--10-----10-----10---10-----10-----10---|--7-----7-----7---7-----7-----7---|
-------8------8-----------8------8------|------8-----8---------8-----8-----|
-----7------7------7----7------7------7-|----7-----7-----7---7-----7-----7-|


   S S S  S S S  S S  S S S  S S S  S S    S S S S S S S S S S S S S S S S  
----------------------------------------|----------------------------------|
----------------------------------------|----------------------------------|
----------------------------------------|----------------------------------|
--10-----10-----10---10-----10-----10---|--5-----5-----5---2-----2-----2---|
-------8------8-----------8------8------|------3-----3---------3-----3-----|
-----7------7------7----7------7------7-|----5-----5-----5---5-----5-----5-|


   S S S  S S S  S S  S S S  S S S  S S    S S S S S S S S S S S S S S S S  
----------------------------------------|----------------------------------|
----------------------------------------|----------------------------------|
----------------------------------------|----------------------------------|
--10-----10-----10---10-----10-----10---|--7-----7-----7---7-----7-----7---|
-------8------8-----------8------8------|------8-----8---------8-----8-----|
-----7------7------7----7------7------7-|----7-----7-----7---7-----7-----7-|


   S S S  S S S  S S  S S S  S S S  S S    S S S S S S S S S S S S S S E   
----------------------------------------|---------------------------------|
----------------------------------------|---------------------------------|
----------------------------------------|---------------------------------|
--10-----10-----10---10-----10-----10---|--5-----5-----5---2-----2-----2--|
-------8------8-----------8------8------|------3-----3---------3-----3----|
-----7------7------7----7------7------7-|----5-----5-----5---5-----5------|


  W                  
-------------------||
-------------------||
-------------------||
--L----------------||
-------------------||
-------------------||



Lead Guitar (Acoustic)



     W                   W                   W                 
D||-------------------|-------------------|-------------------|
A||-------------------|-------------------|-------------------|
F||-------------------|-------------------|-------------------|
C||-------------------|-------------------|-------------------|
G||-------------------|-------------------|-------------------|
C||-------------------|-------------------|-------------------|


  W                   W                   W                   W                 
-------------------|-------------------|-------------------|-------------------|
-------------------|-------------------|-------------------|-------------------|
-------------------|-------------------|-------------------|-------------------|
-------------------|-------------------|-------------------|-------------------|
-------------------|-------------------|-------------------|-------------------|
-------------------|-------------------|-------------------|-------------------|


  W                    H.            Q        H         Q     Q     
-------------------|--10------------13----|------------------------|
-------------------|----------------------|--13--------11----------|
-------------------|----------------------|------------------12----|
-------------------|----------------------|------------------------|
-------------------|----------------------|------------------------|
-------------------|----------------------|------------------------|


             |-----3----|                                                     
   H         Q     Q    Q        Q.     S  S H            H.            Q     
-----------------------------|------------------------|--10------------13----|
--10--------11----10----8----|------------------------|----------------------|
-----------------------------|--10------9-10-9--------|----------------------|
-----------------------------|------------------------|----------------------|
-----------------------------|------------------------|----------------------|
-----------------------------|------------------------|----------------------|


                                      |-----3----|                              
   H         Q     Q        H         Q     Q    Q        Q.     S  S H         
------------------------|-----------------------------|------------------------|
--13--------11----------|--10--------11----10----8----|------------------------|
------------------12----|-----------------------------|--10------9-10-9--------|
------------------------|-----------------------------|------------------------|
------------------------|-----------------------------|------------------------|
------------------------|-----------------------------|------------------------|


                                                             |-----3----|     
   H.            Q        H         Q     Q        H         Q     Q    Q     
--10------------13----|------------------------|-----------------------------|
----------------------|--13--------11----------|--10--------11----10----8----|
----------------------|------------------12----|-----------------------------|
----------------------|------------------------|-----------------------------|
----------------------|------------------------|-----------------------------|
----------------------|------------------------|-----------------------------|


   H        S S  S S Q        H.            Q        H         Q     Q     
--------------------------|--10------------13----|------------------------|
--------------------------|----------------------|--13--------11----------|
--10--------L-9-10-9-L----|----------------------|------------------12----|
--------------------------|----------------------|------------------------|
--------------------------|----------------------|------------------------|
--------------------------|----------------------|------------------------|


             |-----3----|                                                       
   H         Q     Q    Q        H        S S  S S Q        H.            Q     
-----------------------------|--------------------------|--10------------13----|
--10--------11----10----8----|--------------------------|----------------------|
-----------------------------|--10--------L-9-10-9-L----|----------------------|
-----------------------------|--------------------------|----------------------|
-----------------------------|--------------------------|----------------------|
-----------------------------|--------------------------|----------------------|


                                      |-----3----|                           
   H         Q     Q        H         Q     Q    Q        H        H         
------------------------|-----------------------------|---------------------|
--13--------11----------|--10--------11----10----8----|---------------------|
------------------12----|-----------------------------|--10--------9--------|
------------------------|-----------------------------|---------------------|
------------------------|-----------------------------|---------------------|
------------------------|-----------------------------|---------------------|


                                                             |-----3----|     
   H.            Q        H         Q     Q        H         Q     Q    Q     
--10------------13----|------------------------|-----------------------------|
----------------------|--13--------11----------|--10--------11----10----8----|
----------------------|------------------12----|-----------------------------|
----------------------|------------------------|-----------------------------|
----------------------|------------------------|-----------------------------|
----------------------|------------------------|-----------------------------|


   H        H           W                   W                 
---------------------|-------------------|-------------------|
---------------------|-------------------|-------------------|
--10--------9--------|-------------------|-------------------|
---------------------|-------------------|-------------------|
---------------------|-------------------|-------------------|
---------------------|-------------------|-------------------|


  W                   W                   W                   W                 
-------------------|-------------------|-------------------|-------------------|
-------------------|-------------------|-------------------|-------------------|
-------------------|-------------------|-------------------|-------------------|
-------------------|-------------------|-------------------|-------------------|
-------------------|-------------------|-------------------|-------------------|
-------------------|-------------------|-------------------|-------------------|


  W                   W                   W                   W                 
-------------------|-------------------|-------------------|-------------------|
-------------------|-------------------|-------------------|-------------------|
-------------------|-------------------|-------------------|-------------------|
-------------------|-------------------|-------------------|-------------------|
-------------------|-------------------|-------------------|-------------------|
-------------------|-------------------|-------------------|-------------------|


  W                   W                   W                   W                 
-------------------|-------------------|-------------------|-------------------|
-------------------|-------------------|-------------------|-------------------|
-------------------|-------------------|-------------------|-------------------|
-------------------|-------------------|-------------------|-------------------|
-------------------|-------------------|-------------------|-------------------|
-------------------|-------------------|-------------------|-------------------|


  W                   W                   W                   W                 
-------------------|-------------------|-------------------|-------------------|
-------------------|-------------------|-------------------|-------------------|
-------------------|-------------------|-------------------|-------------------|
-------------------|-------------------|-------------------|-------------------|
-------------------|-------------------|-------------------|-------------------|
-------------------|-------------------|-------------------|-------------------|


  W                   W                   W                   W                 
-------------------|-------------------|-------------------|-------------------|
-------------------|-------------------|-------------------|-------------------|
-------------------|-------------------|-------------------|-------------------|
-------------------|-------------------|-------------------|-------------------|
-------------------|-------------------|-------------------|-------------------|
-------------------|-------------------|-------------------|-------------------|


  W                   W                   W                   W                 
-------------------|-------------------|-------------------|-------------------|
-------------------|-------------------|-------------------|-------------------|
-------------------|-------------------|-------------------|-------------------|
-------------------|-------------------|-------------------|-------------------|
-------------------|-------------------|-------------------|-------------------|
-------------------|-------------------|-------------------|-------------------|


  W                   W                   W                   W                 
-------------------|-------------------|-------------------|-------------------|
-------------------|-------------------|-------------------|-------------------|
-------------------|-------------------|-------------------|-------------------|
-------------------|-------------------|-------------------|-------------------|
-------------------|-------------------|-------------------|-------------------|
-------------------|-------------------|-------------------|-------------------|


  W                   W                   W                   W                 
-------------------|-------------------|-------------------|-------------------|
-------------------|-------------------|-------------------|-------------------|
-------------------|-------------------|-------------------|-------------------|
-------------------|-------------------|-------------------|-------------------|
-------------------|-------------------|-------------------|-------------------|
-------------------|-------------------|-------------------|-------------------|


  W                   W                   W                   W                 
-------------------|-------------------|-------------------|-------------------|
-------------------|-------------------|-------------------|-------------------|
-------------------|-------------------|-------------------|-------------------|
-------------------|-------------------|-------------------|-------------------|
-------------------|-------------------|-------------------|-------------------|
-------------------|-------------------|-------------------|-------------------|


  W                   W                   W                   W                 
-------------------|-------------------|-------------------|-------------------|
-------------------|-------------------|-------------------|-------------------|
-------------------|-------------------|-------------------|-------------------|
-------------------|-------------------|-------------------|-------------------|
-------------------|-------------------|-------------------|-------------------|
-------------------|-------------------|-------------------|-------------------|


  W                   W                   W                   W                 
-------------------|-------------------|-------------------|-------------------|
-------------------|-------------------|-------------------|-------------------|
-------------------|-------------------|-------------------|-------------------|
-------------------|-------------------|-------------------|-------------------|
-------------------|-------------------|-------------------|-------------------|
-------------------|-------------------|-------------------|-------------------|


  W                   W                   W                   W                 
-------------------|-------------------|-------------------|-------------------|
-------------------|-------------------|-------------------|-------------------|
-------------------|-------------------|-------------------|-------------------|
-------------------|-------------------|-------------------|-------------------|
-------------------|-------------------|-------------------|-------------------|
-------------------|-------------------|-------------------|-------------------|


  W                   W                   W                   W                 
-------------------|-------------------|-------------------|-------------------|
-------------------|-------------------|-------------------|-------------------|
-------------------|-------------------|-------------------|-------------------|
-------------------|-------------------|-------------------|-------------------|
-------------------|-------------------|-------------------|-------------------|
-------------------|-------------------|-------------------|-------------------|


  W                   W                   W                   W                 
-------------------|-------------------|-------------------|-------------------|
-------------------|-------------------|-------------------|-------------------|
-------------------|-------------------|-------------------|-------------------|
-------------------|-------------------|-------------------|-------------------|
-------------------|-------------------|-------------------|-------------------|
-------------------|-------------------|-------------------|-------------------|


  W                   W                   W                   W                 
-------------------|-------------------|-------------------|-------------------|
-------------------|-------------------|-------------------|-------------------|
-------------------|-------------------|-------------------|-------------------|
-------------------|-------------------|-------------------|-------------------|
-------------------|-------------------|-------------------|-------------------|
-------------------|-------------------|-------------------|-------------------|


  W                   W                   W                   W                 
-------------------|-------------------|-------------------|-------------------|
-------------------|-------------------|-------------------|-------------------|
-------------------|-------------------|-------------------|-------------------|
-------------------|-------------------|-------------------|-------------------|
-------------------|-------------------|-------------------|-------------------|
-------------------|-------------------|-------------------|-------------------|


  W                   W                   W                   W                 
-------------------|-------------------|-------------------|-------------------|
-------------------|-------------------|-------------------|-------------------|
-------------------|-------------------|-------------------|-------------------|
-------------------|-------------------|-------------------|-------------------|
-------------------|-------------------|-------------------|-------------------|
-------------------|-------------------|-------------------|-------------------|


  W                   W                   W                   W                 
-------------------|-------------------|-------------------|-------------------|
-------------------|-------------------|-------------------|-------------------|
-------------------|-------------------|-------------------|-------------------|
-------------------|-------------------|-------------------|-------------------|
-------------------|-------------------|-------------------|-------------------|
-------------------|-------------------|-------------------|-------------------|


  W                   W                   W                   W                 
-------------------|-------------------|-------------------|-------------------|
-------------------|-------------------|-------------------|-------------------|
-------------------|-------------------|-------------------|-------------------|
-------------------|-------------------|-------------------|-------------------|
-------------------|-------------------|-------------------|-------------------|
-------------------|-------------------|-------------------|-------------------|


  W                   W                   W                   W                 
-------------------|-------------------|-------------------|-------------------|
-------------------|-------------------|-------------------|-------------------|
-------------------|-------------------|-------------------|-------------------|
-------------------|-------------------|-------------------|-------------------|
-------------------|-------------------|-------------------|-------------------|
-------------------|-------------------|-------------------|-------------------|


  W                   W                   W                   W                 
-------------------|-------------------|-------------------|-------------------|
-------------------|-------------------|-------------------|-------------------|
-------------------|-------------------|-------------------|-------------------|
-------------------|-------------------|-------------------|-------------------|
-------------------|-------------------|-------------------|-------------------|
-------------------|-------------------|-------------------|-------------------|


  W                   W                   W                   W                 
-------------------|-------------------|-------------------|-------------------|
-------------------|-------------------|-------------------|-------------------|
-------------------|-------------------|-------------------|-------------------|
-------------------|-------------------|-------------------|-------------------|
-------------------|-------------------|-------------------|-------------------|
-------------------|-------------------|-------------------|-------------------|


  W                   W                    H.             S  S  S  S  
-------------------|-------------------|-----------------------------|
-------------------|-------------------|--------------------10-------|
-------------------|-------------------|--12~------------12----12-10-|
-------------------|-------------------|-----------------------------|
-------------------|-------------------|-----------------------------|
-------------------|-------------------|-----------------------------|


  H.            S  S  S S     H.             S  S  S  S  
--------------------------|-----------------------------|
--------------------------|-----------------------------|
--9~------------9-12-10-9-|--10~------------------------|
--------------------------|-----------------12-10-------|
--------------------------|-----------------------12-10-|
--------------------------|-----------------------------|


   H.             Q        H.             S  S  S  S  
-----------------------|-----------------------------|
-----------------------|--------------------10-------|
-----------------------|--12~------------12----12-10-|
-----------------12----|-----------------------------|
--12~------------------|-----------------------------|
-----------------------|-----------------------------|


  H.            S  S  S S     H.             S  S  S  S  
--------------------------|-----------------------------|
--------------------------|-----------------------------|
--9~------------9-12-10-9-|--10~------------------------|
--------------------------|-----------------12-10-------|
--------------------------|-----------------------12-10-|
--------------------------|-----------------------------|


   H.             Q        H.             S  S  S  S  
-----------------------|-----------------------------|
-----------------------|--------------------10-------|
-----------------------|--12~------------12----12-10-|
-----------------12----|-----------------------------|
--12~------------------|-----------------------------|
-----------------------|-----------------------------|


  H.            S  S  S S     H.             S  S  S  S  
--------------------------|-----------------------------|
--------------------------|-----------------------------|
--9~------------9-12-10-9-|--10~------------------------|
--------------------------|-----------------12-10-------|
--------------------------|-----------------------12-10-|
--------------------------|-----------------------------|


   H          H            W                  
------------------------|-------------------||
------------------------|-------------------||
------------------------|-------------------||
------------------------|-------------------||
--12~--------10~--------|--L----------------||
------------------------|-------------------||



Center Guitar



     W                   W                   W                 
D||-------------------|-------------------|-------------------|
A||-------------------|-------------------|-------------------|
F||-------------------|-------------------|-------------------|
C||-------------------|-------------------|-------------------|
G||-------------------|-------------------|-------------------|
C||-------------------|-------------------|-------------------|


  W                   W                   W                   W                 
-------------------|-------------------|-------------------|-------------------|
-------------------|-------------------|-------------------|-------------------|
-------------------|-------------------|-------------------|-------------------|
-------------------|-------------------|-------------------|-------------------|
-------------------|-------------------|-------------------|-------------------|
-------------------|-------------------|-------------------|-------------------|


  W                   W                   W                   W                 
-------------------|-------------------|-------------------|-------------------|
-------------------|-------------------|-------------------|-------------------|
-------------------|-------------------|-------------------|-------------------|
-------------------|-------------------|-------------------|-------------------|
-------------------|-------------------|-------------------|-------------------|
-------------------|-------------------|-------------------|-------------------|


  W                   W                   W                   W                 
-------------------|-------------------|-------------------|-------------------|
-------------------|-------------------|-------------------|-------------------|
-------------------|-------------------|-------------------|-------------------|
-------------------|-------------------|-------------------|-------------------|
-------------------|-------------------|-------------------|-------------------|
-------------------|-------------------|-------------------|-------------------|


  W                   W                   W                   W                 
-------------------|-------------------|-------------------|-------------------|
-------------------|-------------------|-------------------|-------------------|
-------------------|-------------------|-------------------|-------------------|
-------------------|-------------------|-------------------|-------------------|
-------------------|-------------------|-------------------|-------------------|
-------------------|-------------------|-------------------|-------------------|


  W                   W                   W                   W                 
-------------------|-------------------|-------------------|-------------------|
-------------------|-------------------|-------------------|-------------------|
-------------------|-------------------|-------------------|-------------------|
-------------------|-------------------|-------------------|-------------------|
-------------------|-------------------|-------------------|-------------------|
-------------------|-------------------|-------------------|-------------------|


  W                   W                   W                   W                 
-------------------|-------------------|-------------------|-------------------|
-------------------|-------------------|-------------------|-------------------|
-------------------|-------------------|-------------------|-------------------|
-------------------|-------------------|-------------------|-------------------|
-------------------|-------------------|-------------------|-------------------|
-------------------|-------------------|-------------------|-------------------|


  W                   W                   W                   W                 
-------------------|-------------------|-------------------|-------------------|
-------------------|-------------------|-------------------|-------------------|
-------------------|-------------------|-------------------|-------------------|
-------------------|-------------------|-------------------|-------------------|
-------------------|-------------------|-------------------|-------------------|
-------------------|-------------------|-------------------|-------------------|


  W                   W                   W                   W                 
-------------------|-------------------|-------------------|-------------------|
-------------------|-------------------|-------------------|-------------------|
-------------------|-------------------|-------------------|-------------------|
-------------------|-------------------|-------------------|-------------------|
-------------------|-------------------|-------------------|-------------------|
-------------------|-------------------|-------------------|-------------------|


  W                   W                   W                   W                 
-------------------|-------------------|-------------------|-------------------|
-------------------|-------------------|-------------------|-------------------|
-------------------|-------------------|-------------------|-------------------|
-------------------|-------------------|-------------------|-------------------|
-------------------|-------------------|-------------------|-------------------|
-------------------|-------------------|-------------------|-------------------|


  W                   W                   W                   W                 
-------------------|-------------------|-------------------|-------------------|
-------------------|-------------------|-------------------|-------------------|
-------------------|-------------------|-------------------|-------------------|
-------------------|-------------------|-------------------|-------------------|
-------------------|-------------------|-------------------|-------------------|
-------------------|-------------------|-------------------|-------------------|


  W                   W                   W                   W                 
-------------------|-------------------|-------------------|-------------------|
-------------------|-------------------|-------------------|-------------------|
-------------------|-------------------|-------------------|-------------------|
-------------------|-------------------|-------------------|-------------------|
-------------------|-------------------|-------------------|-------------------|
-------------------|-------------------|-------------------|-------------------|


  W                   W                   W                   W                 
-------------------|-------------------|-------------------|-------------------|
-------------------|-------------------|-------------------|-------------------|
-------------------|-------------------|-------------------|-------------------|
-------------------|-------------------|-------------------|-------------------|
-------------------|-------------------|-------------------|-------------------|
-------------------|-------------------|-------------------|-------------------|


  W                   W                   W                   W                 
-------------------|-------------------|-------------------|-------------------|
-------------------|-------------------|-------------------|-------------------|
-------------------|-------------------|-------------------|-------------------|
-------------------|-------------------|-------------------|-------------------|
-------------------|-------------------|-------------------|-------------------|
-------------------|-------------------|-------------------|-------------------|


  W                   W                   W                   W                 
-------------------|-------------------|-------------------|-------------------|
-------------------|-------------------|-------------------|-------------------|
-------------------|-------------------|-------------------|-------------------|
-------------------|-------------------|-------------------|-------------------|
-------------------|-------------------|-------------------|-------------------|
-------------------|-------------------|-------------------|-------------------|


  W                   W                   W                   W                 
-------------------|-------------------|-------------------|-------------------|
-------------------|-------------------|-------------------|-------------------|
-------------------|-------------------|-------------------|-------------------|
-------------------|-------------------|-------------------|-------------------|
-------------------|-------------------|-------------------|-------------------|
-------------------|-------------------|-------------------|-------------------|


  W                   W                   W                   W                 
-------------------|-------------------|-------------------|-------------------|
-------------------|-------------------|-------------------|-------------------|
-------------------|-------------------|-------------------|-------------------|
-------------------|-------------------|-------------------|-------------------|
-------------------|-------------------|-------------------|-------------------|
-------------------|-------------------|-------------------|-------------------|


  W                   W                   W                   W                 
-------------------|-------------------|-------------------|-------------------|
-------------------|-------------------|-------------------|-------------------|
-------------------|-------------------|-------------------|-------------------|
-------------------|-------------------|-------------------|-------------------|
-------------------|-------------------|-------------------|-------------------|
-------------------|-------------------|-------------------|-------------------|


  W                   W                   W                   W                 
-------------------|-------------------|-------------------|-------------------|
-------------------|-------------------|-------------------|-------------------|
-------------------|-------------------|-------------------|-------------------|
-------------------|-------------------|-------------------|-------------------|
-------------------|-------------------|-------------------|-------------------|
-------------------|-------------------|-------------------|-------------------|


  W                   W                   W                   W                 
-------------------|-------------------|-------------------|-------------------|
-------------------|-------------------|-------------------|-------------------|
-------------------|-------------------|-------------------|-------------------|
-------------------|-------------------|-------------------|-------------------|
-------------------|-------------------|-------------------|-------------------|
-------------------|-------------------|-------------------|-------------------|


  W                   W                   W                   W                 
-------------------|-------------------|-------------------|-------------------|
-------------------|-------------------|-------------------|-------------------|
-------------------|-------------------|-------------------|-------------------|
-------------------|-------------------|-------------------|-------------------|
-------------------|-------------------|-------------------|-------------------|
-------------------|-------------------|-------------------|-------------------|


  W                   W                   W                   W                 
-------------------|-------------------|-------------------|-------------------|
-------------------|-------------------|-------------------|-------------------|
-------------------|-------------------|-------------------|-------------------|
-------------------|-------------------|-------------------|-------------------|
-------------------|-------------------|-------------------|-------------------|
-------------------|-------------------|-------------------|-------------------|


  W                   W                   W                   W                 
-------------------|-------------------|-------------------|-------------------|
-------------------|-------------------|-------------------|-------------------|
-------------------|-------------------|-------------------|-------------------|
-------------------|-------------------|-------------------|-------------------|
-------------------|-------------------|-------------------|-------------------|
-------------------|-------------------|-------------------|-------------------|


  W                   W                   W                   W                 
-------------------|-------------------|-------------------|-------------------|
-------------------|-------------------|-------------------|-------------------|
-------------------|-------------------|-------------------|-------------------|
-------------------|-------------------|-------------------|-------------------|
-------------------|-------------------|-------------------|-------------------|
-------------------|-------------------|-------------------|-------------------|


  W                   W                   W                   W                 
-------------------|-------------------|-------------------|-------------------|
-------------------|-------------------|-------------------|-------------------|
-------------------|-------------------|-------------------|-------------------|
-------------------|-------------------|-------------------|-------------------|
-------------------|-------------------|-------------------|-------------------|
-------------------|-------------------|-------------------|-------------------|


  W                   W                   W                   W                 
-------------------|-------------------|-------------------|-------------------|
-------------------|-------------------|-------------------|-------------------|
-------------------|-------------------|-------------------|-------------------|
-------------------|-------------------|-------------------|-------------------|
-------------------|-------------------|-------------------|-------------------|
-------------------|-------------------|-------------------|-------------------|


  W                   W                   W                   W                 
-------------------|-------------------|-------------------|-------------------|
-------------------|-------------------|-------------------|-------------------|
-------------------|-------------------|-------------------|-------------------|
-------------------|-------------------|-------------------|-------------------|
-------------------|-------------------|-------------------|-------------------|
-------------------|-------------------|-------------------|-------------------|


  W                    H.             T   T   S  S  S  
-------------------|----------------------------------|
-------------------|-----------------10h-11p-10-------|
-------------------|--12~-----------------------12-10-|
-------------------|----------------------------------|
-------------------|----------------------------------|
-------------------|----------------------------------|


   H.             T   T   S  S  S     H.             S  S  S  S  
----------------------------------|-----------------------------|
----------------------------------|-----------------------------|
-----------------10h-12p-10-------|-----------------------------|
--14~-----------------------10-12-|--14~------------10-12-10----|
----------------------------------|--------------------------13-|
----------------------------------|-----------------------------|


   H          H          
------------------------|
------------------------|
------------------------|
------------------------|
--10~--------12~--------|
------------------------|


   T  T T  T  T T  T T T  T T T  T T T T  T T T  T T T  T T T  T T T  T T T T  
--12-10-8---------------------------------------------------------------------|
----------11-10-8-------------------------------------------------------------|
------------------10-9-7---------------------------7-9-10-9-7-----------------|
-------------------------10-8-7-------------7-8-10------------10-8-7----------|
--------------------------------10-8-7-8-10--------------------------10-8-7-8-|
------------------------------------------------------------------------------|


  T  T  T T  T  T T  T  T T  T  T T  T  T T  T  T T  T  T T  T  T T  T  T T  T  
--------------------------------------------------------------------------------
--------------------------------------------------------------------------------
--------------------------------------------------------------------------------
--------------------------------------------------------------------------------
--5h-7h-8-7p-5p-3-5h-7h-8-7p-5p-3-5p-3p-1-3h-5h-7-5p-3p-1-3h-5h-7-5h-7h-8-7h-8h-
--------------------------------------------------------------------------------


                                    T                                       T   
   T T  T   T T   T   T T   T   T   T   T   T  T   T  T   T   T T   T   T   T   
------------------------8h-10h-12h-15p-12p-10-------------------8h-10h-12h-17p-1
--------------8h-10h-11-----------------------11p-10p-8h-10h-11-----------------
-----7h-9h-10-------------------------------------------------------------------
--10----------------------------------------------------------------------------
--------------------------------------------------------------------------------
--------------------------------------------------------------------------------


   T   T   T  T  T   T   T  T  T   T   T  T  T   T   T  T  T   T   T  T  T   T  
--20p-18p-17----20p-18p-17----18p-17p-15----18p-17p-15----17p-15p-13----17h-18h-
-------------18------------18------------17------------17------------15---------
--------------------------------------------------------------------------------
--------------------------------------------------------------------------------
--------------------------------------------------------------------------------
--------------------------------------------------------------------------------


  W                   W                   W                   W                 
-------------------|-------------------|-------------------|-------------------|
-------------------|-------------------|-------------------|-------------------|
-------------------|-------------------|-------------------|-------------------|
-------------------|-------------------|-------------------|-------------------|
-------------------|-------------------|-------------------|-------------------|
-------------------|-------------------|-------------------|-------------------|


  W                   W                   W                   W                 
-------------------|-------------------|-------------------|-------------------|
-------------------|-------------------|-------------------|-------------------|
-------------------|-------------------|-------------------|-------------------|
-------------------|-------------------|-------------------|-------------------|
------------
Добавлено: 20.03.2012
Другие материалы по этой песне:

Страница создана 20.03.2012
http://primanota.ru/drop-dead/luxuria-chords.htm
Привет, Гость.
Предлагаем пройти революционный курс по гитаре.
Подарок от PrimaNota.Ru, забирай!