PrimaNota.ru - самый крупный в мире бесплатный архив песенных текстов, аккордов, табулатур и нот


Drop Dead - Killswitch - таба, бас-таба, драм-таба, видео

Регистрация Запомнить меня
Войти через:  Facebook Google Twitter Vk Yandex Mail.ru

Drop Dead - Killswitch - таба, бас-таба, драм-таба, видео

Печатать
Просмотров: 164
Killswitch
Drop Dead
Drop Dead
Kwonnie - kwonnie@live.com

Center Guitar



     E  S E  S S S E  S  E  S S S    E  S E  S S S  E  S E  S S S  
D||-------------------------------|-------------------------------|
A||-------------------------------|-------------------------------|
F||-------------------------------|-------------------------------|
C||-------------------------------|-------------------------------|
G||--3--0-0--0-0-0-0--0-12--0-0-0-|--3--0-0--0-0-0-12--0-0--0-0-0-|
C||--3--0-0--0-0-0-0--0-12--0-0-0-|--3--0-0--0-0-0-12--0-0--0-0-0-|


                                                PM PM PM PM PM PM PM PM  
  E  S E  S S S E  S  E  S S S    E  S E  S S S S  S  S  S  S  S  S  S   
-------------------------------|----------------------------------------|
-------------------------------|----------------------------------------|
-------------------------------|----------------------------------------|
-------------------------------|----------------------------------------|
--3--0-0--0-0-0-0--0-12--0-0-0-|--3--0-0--0-0-0-------------3-----------|
--3--0-0--0-0-0-0--0-12--0-0-0-|--3--0-0--0-0-0-5--3--2--0-----5--3--2--|


  E  S E  S S S E  S  E  S S S    E  S E  S S S  E  S E  S S S  
-------------------------------|-------------------------------|
-------------------------------|-------------------------------|
-------------------------------|-------------------------------|
-------------------------------|-------------------------------|
--3--0-0--0-0-0-0--0-12--0-0-0-|--3--0-0--0-0-0-12--0-0--0-0-0-|
--3--0-0--0-0-0-0--0-12--0-0-0-|--3--0-0--0-0-0-12--0-0--0-0-0-|


                                         PM PM PM PM PM PM PM PM PM PM PM PM  
  E  S E  S S S E  S  E  S S S    E  S S S  S  S  S  S  S  S  S  S  S  S  S   
-------------------------------|---------------------------------------------|
-------------------------------|---------------------------------------------|
-------------------------------|---------------------------------------------|
-------------------------------|---------------------------------------------|
--3--0-0--0-0-0-0--0-12--0-0-0-|--3--0-0-------------3-----5--3--0-----------|
--3--0-0--0-0-0-0--0-12--0-0-0-|--3--0-0-5--3--2--0-----2-----------5--3--2--|


  E  E  S S S E  S E  S S S S    S S E  S S S E  S E  Q     
------------------------------|----------------------------|
------------------------------|----------------------------|
------------------------------|----------------------------|
------------------------------|----------------------------|
--8--7--0-0-0-0--0-0--0-0-0-0-|--L-0-0--0-0-0-0--0-3-------|
--8--7--0-0-0-0--0-0--0-0-0-0-|--L-0-0--0-0-0-0--0-3-------|


  E  E  S S S E  S E  S S S S    S S E  S S S E  S E  S S S S  
------------------------------|-------------------------------|
------------------------------|-------------------------------|
------------------------------|-------------------------------|
------------------------------|-------------------------------|
--8--7--0-0-0-0--0-0--0-0-0-0-|--L-0-0--0-0-0-0--0-0--0-0-0-0-|
--8--7--0-0-0-0--0-0--0-0-0-0-|--L-0-0--0-0-0-0--0-0--0-0-0-0-|


                                                PM PM PM PM PM PM PM PM  
  E  E  S S S E  S E  S S S S    S S E  S S S S S  S  S  S  S  S  S  S   
------------------------------|-----------------------------------------|
------------------------------|-----------------------------------------|
------------------------------|-----------------------------------------|
------------------------------|-----------------------------------------|
--8--7--0-0-0-0--0-0--0-0-0-0-|--L-0-0--0-0-0-0-------------------------|
--8--7--0-0-0-0--0-0--0-0-0-0-|--L-0-0--0-0-0-0-5--3--2--0--5--3--2--5--|


  E  E  S S S E  S E  S S S S    S S E  S S S E  S E  S S S S  
------------------------------|-------------------------------|
------------------------------|-------------------------------|
------------------------------|-------------------------------|
------------------------------|-------------------------------|
--8--7--0-0-0-0--0-0--0-0-0-0-|--L-0-0--0-0-0-0--0-0--0-0-0-0-|
--8--7--0-0-0-0--0-0--0-0-0-0-|--L-0-0--0-0-0-0--0-0--0-0-0-0-|


                                        PM PM PM PM PM PM PM PM PM PM PM PM  
  E  E  S S S E  S E  S S S S    S S E  S  S  S  S  S  S  S  S  S  S  S  S   
------------------------------|---------------------------------------------|
------------------------------|---------------------------------------------|
------------------------------|---------------------------------------------|
------------------------------|---------------------------------------------|
--8--7--0-0-0-0--0-0--0-0-0-0-|--L-0-0--------------------------3--1--0--1--|
--8--7--0-0-0-0--0-0--0-0-0-0-|--L-0-0--5--3--2--0--5--3--2--5--------------|


                                                    PM PM PM PM PM PM PM PM  
  E  E  S S S E  S  E  S S  E        E  S S S S S S S  S  S  S  S  S  S  S   
----------------------------------|-----------------------------------------|
----------------------------------|-----------------------------------------|
----------------------------------|-----------------------------------------|
----------------------------------|-----------------------------------------|
--3--0--0-0-0-0--0-12--0-0--------|-----0-0-0---0-0----------7--------------|
--3--0--0-0-0-0--0-12--0-0-12pbr--|--L--0-0-0---0-0-8--7--5-----8--7--5--7--|


                                                     PM PM PM PM PM PM PM PM  
  E  E  S S S E  S  E  S S  E     S S S S  E     S S S  S  S  S  S  S  S  S   
-------------------------------|---------------------------------------------|
-------------------------------|---------------------------------------------|
-------------------------------|---------------------------------------------|
-------------------------------|---------------------------------------------|
--3--0--0-0-0-0--0-12--0-0-12--|--0-0-0-0--------0-0----------8--7--5--------|
--3--0--0-0-0-0--0-12--0-0-12--|--0-0-0-0-12pbr--0-0-8--7--5-----------7--8--|


                                                    PM PM PM PM PM PM PM PM  
  E  E  S S S E  S  E  S S  E        E  S S S S S S S  S  S  S  S  S  S  S   
----------------------------------|-----------------------------------------|
----------------------------------|-----------------------------------------|
----------------------------------|-----------------------------------------|
----------------------------------|-----------------------------------------|
--3--0--0-0-0-0--0-12--0-0--------|-----0-0-0---0-0----------7--------------|
--3--0--0-0-0-0--0-12--0-0-12pbr--|--L--0-0-0---0-0-8--7--5-----8--7--5--7--|


                                                 PM PM PM PM PM PM PM PM PM PM  
  E  E  S S S E  S  E  S S  E     S S S S  E     S  S  S  S  S  S  S  S  S  S   
-------------------------------|-----------------------------------------------|
-------------------------------|-----------------------------------------------|
-------------------------------|-----------------------------------------------|
-------------------------------|-----------------------------------------------|
--3--0--0-0-0-0--0-12--0-0-12--|--0-0-0-0-----------------8--7--5--------5--7--|
--3--0--0-0-0-0--0-12--0-0-12--|--0-0-0-0-12pbr--8--7--5-----------7--8--------|


  E  E  S S S E  S E  S S S S    S S E  S S S E  S E  S S S S  
------------------------------|-------------------------------|
------------------------------|-------------------------------|
------------------------------|-------------------------------|
------------------------------|-------------------------------|
--8--7--0-0-0-0--0-0--0-0-0-0-|--L-0-0--0-0-0-0--0-0--0-0-0-0-|
--8--7--0-0-0-0--0-0--0-0-0-0-|--L-0-0--0-0-0-0--0-0--0-0-0-0-|


                                                PM PM PM PM PM PM PM PM  
  E  E  S S S E  S E  S S S S    S S E  S S S S S  S  S  S  S  S  S  S   
------------------------------|-----------------------------------------|
------------------------------|-----------------------------------------|
------------------------------|-----------------------------------------|
------------------------------|-----------------------------------------|
--8--7--0-0-0-0--0-0--0-0-0-0-|--L-0-0--0-0-0-0-------------------------|
--8--7--0-0-0-0--0-0--0-0-0-0-|--L-0-0--0-0-0-0-5--3--2--0--5--3--2--5--|


  E  E  S S S E  S E  S S S S    S S E  S S S E  S E  S S S S  
------------------------------|-------------------------------|
------------------------------|-------------------------------|
------------------------------|-------------------------------|
------------------------------|-------------------------------|
--8--7--0-0-0-0--0-0--0-0-0-0-|--L-0-0--0-0-0-0--0-0--0-0-0-0-|
--8--7--0-0-0-0--0-0--0-0-0-0-|--L-0-0--0-0-0-0--0-0--0-0-0-0-|


                                        PM PM PM PM PM PM PM PM PM PM PM PM  
  E  E  S S S E  S E  S S S S    S S E  S  S  S  S  S  S  S  S  S  S  S  S   
------------------------------|---------------------------------------------|
------------------------------|---------------------------------------------|
------------------------------|---------------------------------------------|
------------------------------|---------------------------------------------|
--8--7--0-0-0-0--0-0--0-0-0-0-|--L-0-0--------------------------3--1--0--1--|
--8--7--0-0-0-0--0-0--0-0-0-0-|--L-0-0--5--3--2--0--5--3--2--5--------------|


                                                    PM PM PM PM PM PM PM PM  
  E  E  S S S E  S  E  S S  E        E  S S S S S S S  S  S  S  S  S  S  S   
----------------------------------|-----------------------------------------|
----------------------------------|-----------------------------------------|
----------------------------------|-----------------------------------------|
----------------------------------|-----------------------------------------|
--3--0--0-0-0-0--0-12--0-0--------|-----0-0-0---0-0----------7--------------|
--3--0--0-0-0-0--0-12--0-0-12pbr--|--L--0-0-0---0-0-8--7--5-----8--7--5--7--|


                                                     PM PM PM PM PM PM PM PM  
  E  E  S S S E  S  E  S S  E     S S S S  E     S S S  S  S  S  S  S  S  S   
-------------------------------|---------------------------------------------|
-------------------------------|---------------------------------------------|
-------------------------------|---------------------------------------------|
-------------------------------|---------------------------------------------|
--3--0--0-0-0-0--0-12--0-0-12--|--0-0-0-0--------0-0----------8--7--5--------|
--3--0--0-0-0-0--0-12--0-0-12--|--0-0-0-0-12pbr--0-0-8--7--5-----------7--8--|


                                                    PM PM PM PM PM PM PM PM  
  E  E  S S S E  S  E  S S  E        E  S S S S S S S  S  S  S  S  S  S  S   
----------------------------------|-----------------------------------------|
----------------------------------|-----------------------------------------|
----------------------------------|-----------------------------------------|
----------------------------------|-----------------------------------------|
--3--0--0-0-0-0--0-12--0-0--------|-----0-0-0---0-0----------7--------------|
--3--0--0-0-0-0--0-12--0-0-12pbr--|--L--0-0-0---0-0-8--7--5-----8--7--5--7--|


                                                 PM PM PM PM PM PM PM PM PM PM  
  E  E  S S S E  S  E  S S  E     S S S S  E     S  S  S  S  S  S  S  S  S  S   
-------------------------------|-----------------------------------------------|
-------------------------------|-----------------------------------------------|
-------------------------------|-----------------------------------------------|
-------------------------------|-----------------------------------------------|
--3--0--0-0-0-0--0-12--0-0-12--|--0-0-0-0-----------------8--7--5--------5--7--|
--3--0--0-0-0-0--0-12--0-0-12--|--0-0-0-0-12pbr--8--7--5-----------7--8--------|


  E  E  E  E  E  E  E  E     E  E  E  E  E  E  E  E   
--------------------------|--------------------------|
--------------------------|--------------------------|
--------------------------|--------------------------|
--------2--------------3--|--------5--------3-----2--|
-----------------0--------|--------------------------|
--0--0-----0--0-----0-----|--0--0-----0--0-----0-----|


  E  E  E  E  E  E  E  E     E  E  E  E  E  E  E  E   
--------------------------|--------------------------|
--------------------------|--------------------------|
--------------------------|--------------------------|
--------2--------------3--|--------5--------8-----7--|
-----------------0--------|--------------------------|
--3--3-----3--3-----3-----|--5--5-----5--5-----5-----|


  E  E  E  E  E  E  E  E     E  E  E  E  E  E  E  E   
--------------------------|--------------------------|
--------------------------|--------------------------|
--------------------------|--------------------------|
--------2--------------3--|--------5--------3-----2--|
-----------------0--------|--------------------------|
--0--0-----0--0-----0-----|--0--0-----0--0-----0-----|


  E  E  E  E  E  E  E  E     E  E  E  S S S S E  E  S S  
--------------------------|-----------------------------|
--------------------------|-----------------------------|
--------------------------|-----------------------------|
--------2--------------3--|--------7--------------------|
-----------------0--------|-----------0-0-0-0-0--0--0-0-|
--3--3-----3--3-----3-----|--5--5-----0-0-0-0-0--0--0-0-|


  E  S E  S S S E  S  E  S S S    E  S E  S S S  E  S E  S S S  
-------------------------------|-------------------------------|
-------------------------------|-------------------------------|
-------------------------------|-------------------------------|
-------------------------------|-------------------------------|
--3--0-0--0-0-0-0--0-12--0-0-0-|--3--0-0--0-0-0-12--0-0--0-0-0-|
--3--0-0--0-0-0-0--0-12--0-0-0-|--3--0-0--0-0-0-12--0-0--0-0-0-|


                                                PM PM PM PM PM PM PM PM  
  E  S E  S S S E  S  E  S S S    E  S E  S S S S  S  S  S  S  S  S  S   
-------------------------------|----------------------------------------|
-------------------------------|----------------------------------------|
-------------------------------|----------------------------------------|
-------------------------------|----------------------------------------|
--3--0-0--0-0-0-0--0-12--0-0-0-|--3--0-0--0-0-0-------------3-----------|
--3--0-0--0-0-0-0--0-12--0-0-0-|--3--0-0--0-0-0-5--3--2--0-----5--3--2--|


  E  S E  S S S E  S  E  S S S    E  S E  S S S  E  S E  S S S  
-------------------------------|-------------------------------|
-------------------------------|-------------------------------|
-------------------------------|-------------------------------|
-------------------------------|-------------------------------|
--3--0-0--0-0-0-0--0-12--0-0-0-|--3--0-0--0-0-0-12--0-0--0-0-0-|
--3--0-0--0-0-0-0--0-12--0-0-0-|--3--0-0--0-0-0-12--0-0--0-0-0-|


                                         PM PM PM PM PM PM PM PM PM PM PM PM  
  E  S E  S S S E  S  E  S S S    E  S S S  S  S  S  S  S  S  S  S  S  S  S   
-------------------------------|---------------------------------------------|
-------------------------------|---------------------------------------------|
-------------------------------|---------------------------------------------|
-------------------------------|---------------------------------------------|
--3--0-0--0-0-0-0--0-12--0-0-0-|--3--0-0-------------3-----5--3--0-----------|
--3--0-0--0-0-0-0--0-12--0-0-0-|--3--0-0-5--3--2--0-----2-----------5--3--2--|


  PM PM          PM PM    PM PM    PM PM        PM PM   PM PM   PM PM  
  S  S  H        S  S  E  S  S     S  S  Q.     S  S  S S  S  S S  S   
--------------------------------|-------------------------------------|
--------------------------------|-------------------------------------|
--------------------------------|-------------------------------------|
--------------------------------|-------------------------------------|
--0--0-----------0--0-----0--0--|--0--0---------0--0----0--0----0--0--|
--0--0-----------0--0-----0--0--|--0--0---------0--0----0--0----0--0--|


  PM PM        PM PM PM PM    PM PM  
  S  S  Q.     S  S  S  S  E  S  S   
------------------------------------|
------------------------------------|
------------------------------------|
------------------------------------|
--0--0---------0--0--0--0-----0--0--|
--0--0---------0--0--0--0-----0--0--|


    PM PM PM PM PM PM   PM PM PM PM PM PM PM    PM PM          PM PM    PM PM  
  S S  S  E  S  S  S  S S  S  S  S  S  S  S     S  S  H        S  S  E  S  S   
---------------------------------------------|--------------------------------|
---------------------------------------------|--------------------------------|
---------------------------------------------|--------------------------------|
---------------------------------------------|--------------------------------|
--3-0--0--0--0--0--0--5-0--0--0--------------|--0--0-----------0--0-----0--0--|
--3-0--0--0--0--0--0--5-0--0--0--5--3--2--3--|--0--0-----------0--0-----0--0--|


  PM PM        PM PM   PM PM   PM PM    PM PM        PM PM PM PM    PM PM  
  S  S  Q.     S  S  S S  S  S S  S     S  S  Q.     S  S  S  S  E  S  S   
-------------------------------------|------------------------------------|
-------------------------------------|------------------------------------|
-------------------------------------|------------------------------------|
-------------------------------------|------------------------------------|
--0--0---------0--0----0--0----0--0--|--0--0---------0--0--0--0-----0--0--|
--0--0---------0--0----0--0----0--0--|--0--0---------0--0--0--0-----0--0--|


    PM PM PM PM PM PM PM PM PM PM  PMPM PM PM    PM PM          PM PM    PM PM  
  S S  S  E  S  S  S  S  S  S  S   S S  S  S     S  S  H        S  S  E  S  S   
----------------------------------------------|--------------------------------|
----------------------------------------------|--------------------------------|
----------------------------------------------|--------------------------------|
----------------------------------------------|--------------------------------|
--3-0--0--0--0--0--0--------------------------|--0--0-----------0--0-----0--0--|
--3-0--0--0--0--0--0--5--3--2--0--10-8--7--8--|--0--0-----------0--0-----0--0--|


  PM PM        PM PM   PM PM   PM PM    PM PM        PM PM PM PM    PM PM  
  S  S  Q.     S  S  S S  S  S S  S     S  S  Q.     S  S  S  S  E  S  S   
-------------------------------------|------------------------------------|
-------------------------------------|------------------------------------|
-------------------------------------|------------------------------------|
-------------------------------------|------------------------------------|
--0--0---------0--0----0--0----0--0--|--0--0---------0--0--0--0-----0--0--|
--0--0---------0--0----0--0----0--0--|--0--0---------0--0--0--0-----0--0--|


     PM PM    PM PM PM PM PM PM PM PM PM PM    PM PM          PM PM    PM PM  
  E  S  S  E  S  S  S  S  S  S  S  S  S  S     S  S  H        S  S  E  S  S   
--------------------------------------------|--------------------------------|
--------------------------------------------|--------------------------------|
--------------------------------------------|--------------------------------|
--------------------------------------------|--------------------------------|
--3--0--0--3--0--0--------------3--1--0--1--|--0--0-----------0--0-----0--0--|
--3--0--0--3--0--0--7--5--3--0--------------|--0--0-----------0--0-----0--0--|


  PM PM        PM PM   PM PM   PM PM    PM PM        PM PM PM PM    PM PM  
  S  S  Q.     S  S  S S  S  S S  S     S  S  Q.     S  S  S  S  E  S  S   
-------------------------------------|------------------------------------|
-------------------------------------|------------------------------------|
-------------------------------------|------------------------------------|
-------------------------------------|------------------------------------|
--0--0---------0--0----0--0----0--0--|--0--0---------0--0--0--0-----0--0--|
--0--0---------0--0----0--0----0--0--|--0--0---------0--0--0--0-----0--0--|


  E  S S S S E  E  S S S S E     E  E  E  E  E  E  E  E   
------------------------------|--------------------------|
------------------------------|--------------------------|
------------------------------|--------------------------|
------------------------------|--------2--------------3--|
--3--3-3-3-3-3--5--5-5-5-5-5--|-----------------0--------|
--3--3-3-3-3-3--5--5-5-5-5-5--|--0--0-----0--0-----0-----|


  E  E  E  E  E  E  E  E     E  E  E  E  E  E  E  E   
--------------------------|--------------------------|
--------------------------|--------------------------|
--------------------------|--------------------------|
--------5--------3-----2--|--------2--------------3--|
--------------------------|-----------------0--------|
--0--0-----0--0-----0-----|--3--3-----3--3-----3-----|


  E  E  E  E  E  E  E  E     E  E  E  E  E  E  E  E   
--------------------------|--------------------------|
--------------------------|--------------------------|
--------------------------|--------------------------|
--------5--------8-----7--|--------2--------------3--|
--------------------------|-----------------0--------|
--5--5-----5--5-----5-----|--0--0-----0--0-----0-----|


  E  E  E  E  E  E  E  E     E  E  E  E  E  E  E  E   
--------------------------|--------------------------|
--------------------------|--------------------------|
--------------------------|--------------------------|
--------5--------3-----2--|--------2--------------3--|
--------------------------|-----------------0--------|
--0--0-----0--0-----0-----|--3--3-----3--3-----3-----|


  E  E  E  E  E  E  E   E     E  E  E  E  E  E  E  E   
---------------------------|--------------------------|
---------------------------|--------------------------|
---------------------------|--------------------------|
--------7--------8-----10--|--------2--------------3--|
---------------------------|-----------------0--------|
--5--5-----5--5-----7------|--0--0-----0--0-----0-----|


  E  E  E  E  E  E  E  E     E  E  E  E  E  E  E  E   
--------------------------|--------------------------|
--------------------------|--------------------------|
--------------------------|--------------------------|
--------5--------3-----2--|--------2--------------3--|
--------------------------|-----------------0--------|
--0--0-----0--0-----0-----|--3--3-----3--3-----3-----|


  E  E  E  E  E  E  E  E     E  E  E  E  E  E  E  E   
--------------------------|--------------------------|
--------------------------|--------------------------|
--------------------------|--------------------------|
--------5--------8-----7--|--------2--------------3--|
--------------------------|-----------------0--------|
--5--5-----5--5-----5-----|--0--0-----0--0-----0-----|


  E  E  E  E  E  E  E  E     E  E  E  E  E  E  E  E   
--------------------------|--------------------------|
--------------------------|--------------------------|
--------------------------|--------------------------|
--------5--------3-----2--|--------2--------------3--|
--------------------------|-----------------0--------|
--0--0-----0--0-----0-----|--3--3-----3--3-----3-----|


  E  E  E  E  E  E  E   E     E.  E.  E.  E.  E  E     E.  E.  E.  E.  E  E   
---------------------------|------------------------|------------------------|
---------------------------|------------------------|------------------------|
---------------------------|------------------------|------------------------|
--------7--------8-----10--|--0---0---0---0---0--0--|--3---3---3---3---3--3--|
---------------------------|--0---0---0---0---0--0--|--3---3---3---3---3--3--|
--5--5-----5--5-----7---L--|--0---0---0---0---0--0--|--3---3---3---3---3--3--|


  E.  E.  E  E.  E.  E     E  E  E  E   E.   E.  E     E.  E.  E.  E.  E  E   
------------------------|---------------------------|------------------------|
------------------------|---------------------------|------------------------|
------------------------|---------------------------|------------------------|
--5---5---5--5---5---5--|--7--7--7--7--10---10---8--|--0---0---0---0---0--0--|
--5---5---5--5---5---5--|--7--7--7--7--10---10---8--|--0---0---0---0---0--0--|
--5---5---5--5---5---5--|--7--7--7--7--10---10---8--|--0---0---0---0---0--0--|


  E.  E.  E.  E.  E  E     E.  E.  E  E.  E.  E     E  E  E  E   E.   E.  E   
------------------------|------------------------|---------------------------|
------------------------|------------------------|---------------------------|
------------------------|------------------------|---------------------------|
--3---3---3---3---3--3--|--5---5---5--5---5---5--|--7--7--7--7--10---10---8--|
--3---3---3---3---3--3--|--5---5---5--5---5---5--|--7--7--7--7--10---10---8--|
--3---3---3---3---3--3--|--5---5---5--5---5---5--|--7--7--7--7--10---10---8--|


  E.  E.  E.  E.  E  E     E.  E.  E.  E.  E  E     E.  E.  E  E.  E.  E   
------------------------|------------------------|------------------------|
------------------------|------------------------|------------------------|
------------------------|------------------------|------------------------|
--0---0---0---0---0--0--|--3---3---3---3---3--3--|--5---5---5--5---5---5--|
--0---0---0---0---0--0--|--3---3---3---3---3--3--|--5---5---5--5---5---5--|
--0---0---0---0---0--0--|--3---3---3---3---3--3--|--5---5---5--5---5---5--|


  E  E  E  E   E.   E.  E     E.  E.  E.  E.  E  E     E.  E.  E.  E.  E  E   
---------------------------|------------------------|------------------------|
---------------------------|------------------------|------------------------|
---------------------------|------------------------|------------------------|
--7--7--7--7--10---10---8--|--0---0---0---0---0--0--|--3---3---3---3---3--3--|
--7--7--7--7--10---10---8--|--0---0---0---0---0--0--|--3---3---3---3---3--3--|
--7--7--7--7--10---10---8--|--0---0---0---0---0--0--|--3---3---3---3---3--3--|


  E.  E.  E  E.  E.  E     E  E  E  E   E.   E.  E   
------------------------|---------------------------|
------------------------|---------------------------|
------------------------|---------------------------|
--5---5---5--5---5---5--|--7--7--7--7--10---10---8--|
--5---5---5--5---5---5--|--7--7--7--7--10---10---8--|
--5---5---5--5---5---5--|--7--7--7--7--10---10---8--|


   E  E   E   E  E   E  E   E      E  E   E  E   E   E   E   E   
--12--0--15--13--0--12--0--12--|--13--0--17--0--15--13--12--13--|
-------------------------------|--------------------------------|
-------------------------------|--------------------------------|
-------------------------------|--------------------------------|
-------------------------------|--------------------------------|
-------------------------------|--------------------------------|


   E  E   E   E  E   E  E   E      E  E   E   E   E   E   E   E   
--12--0--15--13--0--12--0--12--|--13--0--20--18--17------18--20--|
-------------------------------|---------------------20----------|
-------------------------------|---------------------------------|
-------------------------------|---------------------------------|
-------------------------------|---------------------------------|
-------------------------------|---------------------------------|


   E  E   E   E  E   E  E   E      E  E   E  E   E   E   E   E   
--12--0--15--13--0--12--0--12--|--13--0--17--0--15--13--12--13--|
-------------------------------|--------------------------------|
-------------------------------|--------------------------------|
-------------------------------|--------------------------------|
-------------------------------|--------------------------------|
-------------------------------|--------------------------------|


   E  E   E   E  E   E  E   E      E  E   E   E   E   E   E   E   
--12--0--15--13--0--12--0--12--|--13--0--22--20--18--22--18--20--|
-------------------------------|---------------------------------|
-------------------------------|---------------------------------|
-------------------------------|---------------------------------|
-------------------------------|---------------------------------|
-------------------------------|---------------------------------|


   E  E   E   E  E   E  E   E      E  E   E  E   E   E   E   E   
--12--0--15--13--0--12--0--12--|--13--0--17--0--15--13--12--13--|
-------------------------------|--------------------------------|
-------------------------------|--------------------------------|
-------------------------------|--------------------------------|
-------------------------------|--------------------------------|
-------------------------------|--------------------------------|


   E  E   E   E  E   E  E   E      E  E   E   E   E   E   E   E   
--12--0--15--13--0--12--0--12--|--13--0--20--18--17------18--20--|
-------------------------------|---------------------20----------|
-------------------------------|---------------------------------|
-------------------------------|---------------------------------|
-------------------------------|---------------------------------|
-------------------------------|---------------------------------|


   E  E   E   E  E   E  E   E      E  E   E  E   E   E   E   E   
--12--0--15--13--0--12--0--12--|--13--0--17--0--15--13--12--13--|
-------------------------------|--------------------------------|
-------------------------------|--------------------------------|
-------------------------------|--------------------------------|
-------------------------------|--------------------------------|
-------------------------------|--------------------------------|


   E  E   E   E  E   E  E   E      E  E   E   E   E   E   E   E   
--12--0--15--13--0--12--0--12--|--13--0--22--20--18--22--18--20--|
-------------------------------|---------------------------------|
-------------------------------|---------------------------------|
-------------------------------|---------------------------------|
-------------------------------|---------------------------------|
-------------------------------|---------------------------------|


  W                   W                   W                   W                 
-------------------|-------------------|-------------------|-------------------|
-------------------|-------------------|-------------------|-------------------|
-------------------|-------------------|-------------------|-------------------|
-------------------|-------------------|-------------------|-------------------|
-------------------|-------------------|-------------------|-------------------|
-------------------|-------------------|-------------------|-------------------|


  W                   W                   W                   W                 
-------------------|-------------------|-------------------|-------------------|
-------------------|-------------------|-------------------|-------------------|
-------------------|-------------------|-------------------|-------------------|
-------------------|-------------------|-------------------|-------------------|
-------------------|-------------------|-------------------|-------------------|
-------------------|-------------------|-------------------|-------------------|


  W                   W                   W                   W                 
-------------------|-------------------|-------------------|-------------------|
-------------------|-------------------|-------------------|-------------------|
-------------------|-------------------|-------------------|-------------------|
-------------------|-------------------|-------------------|-------------------|
-------------------|-------------------|-------------------|-------------------|
-------------------|-------------------|-------------------|-------------------|


  W                   W                   W                   W                 
-------------------|-------------------|-------------------|-------------------|
-------------------|-------------------|-------------------|-------------------|
-------------------|-------------------|-------------------|-------------------|
-------------------|-------------------|-------------------|-------------------|
-------------------|-------------------|-------------------|-------------------|
-------------------|-------------------|-------------------|-------------------|


  W                   W                  
-------------------|-------------------||
-------------------|-------------------||
-------------------|-------------------||
-------------------|-------------------||
-------------------|-------------------||
-------------------|-------------------||



Left Guitar



     E  S E  S S S E  S  E  S S S    E  S E  S S S  E  S E  S S S  
D||-------------------------------|-------------------------------|
A||-------------------------------|-------------------------------|
F||-------------------------------|-------------------------------|
C||-------------------------------|-------------------------------|
G||--3--0-0--0-0-0-0--0-12--0-0-0-|--3--0-0--0-0-0-12--0-0--0-0-0-|
C||--3--0-0--0-0-0-0--0-12--0-0-0-|--3--0-0--0-0-0-12--0-0--0-0-0-|


                                                PM PM PM PM PM PM PM PM  
  E  S E  S S S E  S  E  S S S    E  S E  S S S S  S  S  S  S  S  S  S   
-------------------------------|----------------------------------------|
-------------------------------|----------------------------------------|
-------------------------------|----------------------------------------|
-------------------------------|----------------------------------------|
--3--0-0--0-0-0-0--0-12--0-0-0-|--3--0-0--0-0-0-------------3-----------|
--3--0-0--0-0-0-0--0-12--0-0-0-|--3--0-0--0-0-0-5--3--2--0-----5--3--2--|


  E  S E  S S S E  S  E  S S S    E  S E  S S S  E  S E  S S S  
-------------------------------|-------------------------------|
-------------------------------|-------------------------------|
-------------------------------|-------------------------------|
-------------------------------|-------------------------------|
--3--0-0--0-0-0-0--0-12--0-0-0-|--3--0-0--0-0-0-12--0-0--0-0-0-|
--3--0-0--0-0-0-0--0-12--0-0-0-|--3--0-0--0-0-0-12--0-0--0-0-0-|


                                         PM PM PM PM PM PM PM PM PM PM PM PM  
  E  S E  S S S E  S  E  S S S    E  S S S  S  S  S  S  S  S  S  S  S  S  S   
-------------------------------|---------------------------------------------|
-------------------------------|---------------------------------------------|
-------------------------------|---------------------------------------------|
-------------------------------|---------------------------------------------|
--3--0-0--0-0-0-0--0-12--0-0-0-|--3--0-0-------------3-----5--3--0-----------|
--3--0-0--0-0-0-0--0-12--0-0-0-|--3--0-0-5--3--2--0-----2-----------5--3--2--|


  W                   W                   E  E  S S S E  S E  S S S S  
-------------------|-------------------|------------------------------|
-------------------|-------------------|------------------------------|
-------------------|-------------------|------------------------------|
-------------------|-------------------|------------------------------|
-------------------|-------------------|--8--7--0-0-0-0--0-0--0-0-0-0-|
-------------------|-------------------|--8--7--0-0-0-0--0-0--0-0-0-0-|


  S S E  S S S E  S E  S S S S    E  E  S S S E  S E  S S S S  
-------------------------------|------------------------------|
-------------------------------|------------------------------|
-------------------------------|------------------------------|
-------------------------------|------------------------------|
--L-0-0--0-0-0-0--0-0--0-0-0-0-|--8--7--0-0-0-0--0-0--0-0-0-0-|
--L-0-0--0-0-0-0--0-0--0-0-0-0-|--8--7--0-0-0-0--0-0--0-0-0-0-|


                 PM PM PM PM PM PM PM PM                                 
  S S E  S S S S S  S  S  S  S  S  S  S     E  E  S S S E  S E  S S S S  
-----------------------------------------|------------------------------|
-----------------------------------------|------------------------------|
-----------------------------------------|------------------------------|
-----------------------------------------|------------------------------|
--L-0-0--0-0-0-0-------------------------|--8--7--0-0-0-0--0-0--0-0-0-0-|
--L-0-0--0-0-0-0-5--3--2--0--5--3--2--5--|--8--7--0-0-0-0--0-0--0-0-0-0-|


  S S E  S S S E  S E  S S S S    E  E  S S S E  S E  S S S S  
-------------------------------|------------------------------|
-------------------------------|------------------------------|
-------------------------------|------------------------------|
-------------------------------|------------------------------|
--L-0-0--0-0-0-0--0-0--0-0-0-0-|--8--7--0-0-0-0--0-0--0-0-0-0-|
--L-0-0--0-0-0-0--0-0--0-0-0-0-|--8--7--0-0-0-0--0-0--0-0-0-0-|


         PM PM PM PM PM PM PM PM PM PM PM PM  
  S S E  S  S  S  S  S  S  S  S  S  S  S  S   
---------------------------------------------|
---------------------------------------------|
---------------------------------------------|
---------------------------------------------|
--L-0-0--------------------------3--1--0--1--|
--L-0-0--5--3--2--0--5--3--2--5--------------|


                                                    PM PM PM PM PM PM PM PM  
  E  E  S S S E  S  E  S S  E        E  S S S S S S S  S  S  S  S  S  S  S   
----------------------------------|-----------------------------------------|
----------------------------------|-----------------------------------------|
----------------------------------|-----------------------------------------|
----------------------------------|-----------------------------------------|
--3--0--0-0-0-0--0-12--0-0--------|-----0-0-0---0-0----------7--------------|
--3--0--0-0-0-0--0-12--0-0-12pbr--|--L--0-0-0---0-0-8--7--5-----8--7--5--7--|


                                                     PM PM PM PM PM PM PM PM  
  E  E  S S S E  S  E  S S  E     S S S S  E     S S S  S  S  S  S  S  S  S   
-------------------------------|---------------------------------------------|
-------------------------------|---------------------------------------------|
-------------------------------|---------------------------------------------|
-------------------------------|---------------------------------------------|
--3--0--0-0-0-0--0-12--0-0-12--|--0-0-0-0--------0-0----------8--7--5--------|
--3--0--0-0-0-0--0-12--0-0-12--|--0-0-0-0-12pbr--0-0-8--7--5-----------7--8--|


                                                    PM PM PM PM PM PM PM PM  
  E  E  S S S E  S  E  S S  E        E  S S S S S S S  S  S  S  S  S  S  S   
----------------------------------|-----------------------------------------|
----------------------------------|-----------------------------------------|
----------------------------------|-----------------------------------------|
----------------------------------|-----------------------------------------|
--3--0--0-0-0-0--0-12--0-0--------|-----0-0-0---0-0----------7--------------|
--3--0--0-0-0-0--0-12--0-0-12pbr--|--L--0-0-0---0-0-8--7--5-----8--7--5--7--|


                                                 PM PM PM PM PM PM PM PM PM PM  
  E  E  S S S E  S  E  S S  E     S S S S  E     S  S  S  S  S  S  S  S  S  S   
-------------------------------|-----------------------------------------------|
-------------------------------|-----------------------------------------------|
-------------------------------|-----------------------------------------------|
-------------------------------|-----------------------------------------------|
--3--0--0-0-0-0--0-12--0-0-12--|--0-0-0-0-----------------8--7--5--------5--7--|
--3--0--0-0-0-0--0-12--0-0-12--|--0-0-0-0-12pbr--8--7--5-----------7--8--------|


  E  E  S S S E  S E  S S S S    S S E  S S S E  S E  S S S S  
------------------------------|-------------------------------|
------------------------------|-------------------------------|
------------------------------|-------------------------------|
------------------------------|-------------------------------|
--8--7--0-0-0-0--0-0--0-0-0-0-|--L-0-0--0-0-0-0--0-0--0-0-0-0-|
--8--7--0-0-0-0--0-0--0-0-0-0-|--L-0-0--0-0-0-0--0-0--0-0-0-0-|


                                                PM PM PM PM PM PM PM PM  
  E  E  S S S E  S E  S S S S    S S E  S S S S S  S  S  S  S  S  S  S   
------------------------------|-----------------------------------------|
------------------------------|-----------------------------------------|
------------------------------|-----------------------------------------|
------------------------------|-----------------------------------------|
--8--7--0-0-0-0--0-0--0-0-0-0-|--L-0-0--0-0-0-0-------------------------|
--8--7--0-0-0-0--0-0--0-0-0-0-|--L-0-0--0-0-0-0-5--3--2--0--5--3--2--5--|


  E  E  S S S E  S E  S S S S    S S E  S S S E  S E  S S S S  
------------------------------|-------------------------------|
------------------------------|-------------------------------|
------------------------------|-------------------------------|
------------------------------|-------------------------------|
--8--7--0-0-0-0--0-0--0-0-0-0-|--L-0-0--0-0-0-0--0-0--0-0-0-0-|
--8--7--0-0-0-0--0-0--0-0-0-0-|--L-0-0--0-0-0-0--0-0--0-0-0-0-|


                                        PM PM PM PM PM PM PM PM PM PM PM PM  
  E  E  S S S E  S E  S S S S    S S E  S  S  S  S  S  S  S  S  S  S  S  S   
------------------------------|---------------------------------------------|
------------------------------|---------------------------------------------|
------------------------------|---------------------------------------------|
------------------------------|---------------------------------------------|
--8--7--0-0-0-0--0-0--0-0-0-0-|--L-0-0--------------------------3--1--0--1--|
--8--7--0-0-0-0--0-0--0-0-0-0-|--L-0-0--5--3--2--0--5--3--2--5--------------|


                                                    PM PM PM PM PM PM PM PM  
  E  E  S S S E  S  E  S S  E        E  S S S S S S S  S  S  S  S  S  S  S   
----------------------------------|-----------------------------------------|
----------------------------------|-----------------------------------------|
----------------------------------|-----------------------------------------|
----------------------------------|-----------------------------------------|
--3--0--0-0-0-0--0-12--0-0--------|-----0-0-0---0-0----------7--------------|
--3--0--0-0-0-0--0-12--0-0-12pbr--|--L--0-0-0---0-0-8--7--5-----8--7--5--7--|


                                                     PM PM PM PM PM PM PM PM  
  E  E  S S S E  S  E  S S  E     S S S S  E     S S S  S  S  S  S  S  S  S   
-------------------------------|---------------------------------------------|
-------------------------------|---------------------------------------------|
-------------------------------|---------------------------------------------|
-------------------------------|---------------------------------------------|
--3--0--0-0-0-0--0-12--0-0-12--|--0-0-0-0--------0-0----------8--7--5--------|
--3--0--0-0-0-0--0-12--0-0-12--|--0-0-0-0-12pbr--0-0-8--7--5-----------7--8--|


                                                    PM PM PM PM PM PM PM PM  
  E  E  S S S E  S  E  S S  E        E  S S S S S S S  S  S  S  S  S  S  S   
----------------------------------|-----------------------------------------|
----------------------------------|-----------------------------------------|
----------------------------------|-----------------------------------------|
----------------------------------|-----------------------------------------|
--3--0--0-0-0-0--0-12--0-0--------|-----0-0-0---0-0----------7--------------|
--3--0--0-0-0-0--0-12--0-0-12pbr--|--L--0-0-0---0-0-8--7--5-----8--7--5--7--|


                                                 PM PM PM PM PM PM PM PM PM PM  
  E  E  S S S E  S  E  S S  E     S S S S  E     S  S  S  S  S  S  S  S  S  S   
-------------------------------|-----------------------------------------------|
-------------------------------|-----------------------------------------------|
-------------------------------|-----------------------------------------------|
-------------------------------|-----------------------------------------------|
--3--0--0-0-0-0--0-12--0-0-12--|--0-0-0-0-----------------8--7--5--------5--7--|
--3--0--0-0-0-0--0-12--0-0-12--|--0-0-0-0-12pbr--8--7--5-----------7--8--------|


  S S E  E  S S S S E  E  S S    S S E  E  S S S S E  E  S S  
------------------------------|------------------------------|
------------------------------|------------------------------|
------------------------------|------------------------------|
------------------------------|------------------------------|
--3-3-3--3--3-3-3-3-3--3--3-3-|--5-5-5--5--5-5-5-5-5--5--5-5-|
--3-3-3--3--3-3-3-3-3--3--3-3-|--5-5-5--5--5-5-5-5-5--5--5-5-|


  S S E  E  S S S S E  E  S S    S S E  E  S S S S E  E  S S  
------------------------------|------------------------------|
------------------------------|------------------------------|
------------------------------|------------------------------|
------------------------------|------------------------------|
--8-8-8--8--8-8-8-8-8--8--8-8-|--0-0-0--0--0-0-0-0-0--0--0-0-|
--7-7-7--7--7-7-7-7-7--7--7-7-|--0-0-0--0--0-0-0-0-0--0--0-0-|


  S S E  E  S S S S E  E  S S    S S E  E  S S S S E  E  S S  
------------------------------|------------------------------|
------------------------------|------------------------------|
------------------------------|------------------------------|
------------------------------|------------------------------|
--3-3-3--3--3-3-3-3-3--3--3-3-|--5-5-5--5--5-5-5-5-5--5--5-5-|
--3-3-3--3--3-3-3-3-3--3--3-3-|--5-5-5--5--5-5-5-5-5--5--5-5-|


  S S E  E  S S S S E  E  S S    S S E  E  S S S S E  E  S S  
------------------------------|------------------------------|
------------------------------|------------------------------|
------------------------------|------------------------------|
------------------------------|------------------------------|
--8-8-8--8--8-8-8-8-8--8--8-8-|--0-0-0--0--0-0-0-0-0--0--0-0-|
--7-7-7--7--7-7-7-7-7--7--7-7-|--0-0-0--0--0-0-0-0-0--0--0-0-|


  E  S E  S S S E  S  E  S S S    E  S E  S S S  E  S E  S S S  
-------------------------------|-------------------------------|
-------------------------------|-------------------------------|
-------------------------------|-------------------------------|
-------------------------------|-------------------------------|
--3--0-0--0-0-0-0--0-12--0-0-0-|--3--0-0--0-0-0-12--0-0--0-0-0-|
--3--0-0--0-0-0-0--0-12--0-0-0-|--3--0-0--0-0-0-12--0-0--0-0-0-|


                                                PM PM PM PM PM PM PM PM  
  E  S E  S S S E  S  E  S S S    E  S E  S S S S  S  S  S  S  S  S  S   
-------------------------------|----------------------------------------|
-------------------------------|----------------------------------------|
-------------------------------|----------------------------------------|
-------------------------------|----------------------------------------|
--3--0-0--0-0-0-0--0-12--0-0-0-|--3--0-0--0-0-0-------------3-----------|
--3--0-0--0-0-0-0--0-12--0-0-0-|--3--0-0--0-0-0-5--3--2--0-----5--3--2--|


  E  S E  S S S E  S  E  S S S    E  S E  S S S  E  S E  S S S  
-------------------------------|-------------------------------|
-------------------------------|-------------------------------|
-------------------------------|-------------------------------|
-------------------------------|-------------------------------|
--3--0-0--0-0-0-0--0-12--0-0-0-|--3--0-0--0-0-0-12--0-0--0-0-0-|
--3--0-0--0-0-0-0--0-12--0-0-0-|--3--0-0--0-0-0-12--0-0--0-0-0-|


                                         PM PM PM PM PM PM PM PM PM PM PM PM  
  E  S E  S S S E  S  E  S S S    E  S S S  S  S  S  S  S  S  S  S  S  S  S   
-------------------------------|---------------------------------------------|
-------------------------------|---------------------------------------------|
-------------------------------|---------------------------------------------|
-------------------------------|---------------------------------------------|
--3--0-0--0-0-0-0--0-12--0-0-0-|--3--0-0-------------3-----5--3--0-----------|
--3--0-0--0-0-0-0--0-12--0-0-0-|--3--0-0-5--3--2--0-----2-----------5--3--2--|


  PM PM          PM PM    PM PM    PM PM        PM PM   PM PM   PM PM  
  S  S  H        S  S  E  S  S     S  S  Q.     S  S  S S  S  S S  S   
--------------------------------|-------------------------------------|
--------------------------------|-------------------------------------|
--------------------------------|-------------------------------------|
--------------------------------|-------------------------------------|
--0--0-----------0--0-----0--0--|--0--0---------0--0----0--0----0--0--|
--0--0-----------0--0-----0--0--|--0--0---------0--0----0--0----0--0--|


  PM PM        PM PM PM PM    PM PM  
  S  S  Q.     S  S  S  S  E  S  S   
------------------------------------|
------------------------------------|
------------------------------------|
------------------------------------|
--0--0---------0--0--0--0-----0--0--|
--0--0---------0--0--0--0-----0--0--|


    PM PM PM PM PM PM   PM PM PM PM PM PM PM    PM PM          PM PM    PM PM  
  S S  S  E  S  S  S  S S  S  S  S  S  S  S     S  S  H        S  S  E  S  S   
---------------------------------------------|--------------------------------|
---------------------------------------------|--------------------------------|
---------------------------------------------|--------------------------------|
---------------------------------------------|--------------------------------|
--3-0--0--0--0--0--0--5-0--0--0--------------|--0--0-----------0--0-----0--0--|
--3-0--0--0--0--0--0--5-0--0--0--5--3--2--3--|--0--0-----------0--0-----0--0--|


  PM PM        PM PM   PM PM   PM PM    PM PM        PM PM PM PM    PM PM  
  S  S  Q.     S  S  S S  S  S S  S     S  S  Q.     S  S  S  S  E  S  S   
-------------------------------------|------------------------------------|
-------------------------------------|------------------------------------|
-------------------------------------|------------------------------------|
-------------------------------------|------------------------------------|
--0--0---------0--0----0--0----0--0--|--0--0---------0--0--0--0-----0--0--|
--0--0---------0--0----0--0----0--0--|--0--0---------0--0--0--0-----0--0--|


    PM PM PM PM PM PM PM PM PM PM  PMPM PM PM  
  S S  S  E  S  S  S  S  S  S  S   S S  S  S   
----------------------------------------------|
----------------------------------------------|
----------------------------------------------|
----------------------------------------------|
--3-0--0--0--0--0--0--------------------------|
--3-0--0--0--0--0--0--5--3--2--0--10-8--7--8--|


  PM PM PM PM PM PM  PM PM PM PM  PM PM  
  S  S  S  S  S  E.  S  S  S  E.  S  S   
----------------------------------------|
----------------------------------------|
----------------------------------------|
----------------------------------------|
--0--0--5--3--1--0---5--3--1--0---0--0--|
--0--0----------------------------0--0--|


  PM PM PM PM PM PM  PM PM   PM PM   PM PM  
  S  S  S  S  S  E.  S  S  S S  S  S S  S   
-------------------------------------------|
-------------------------------------------|
-------------------------------------------|
-------------------------------------------|
--0--0--5--3--1--0---0--0----0--0----0--0--|
--0--0---------------0--0----0--0----0--0--|


  PM PM PM PM PM PM  PM PM PM PM  PM PM  
  S  S  S  S  S  E.  S  S  S  E.  S  S   
----------------------------------------|
----------------------------------------|
----------------------------------------|
----------------------------------------|
--0--0--5--3--1--0---5--3--1--0---0--0--|
--0--0----------------------------0--0--|


     PM PM    PM PM PM PM PM PM PM PM PM PM  
  E  S  S  E  S  S  S  S  S  S  S  S  S  S   
--------------------------------------------|
--------------------------------------------|
--------------------------------------------|
--------------------------------------------|
--3--0--0--3--0--0--------------3--1--0--1--|
--3--0--0--3--0--0--7--5--3--0--------------|


  PM PM PM PM PM PM  PM PM PM PM  PM PM  
  S  S  S  S  S  E.  S  S  S  E.  S  S   
----------------------------------------|
----------------------------------------|
----------------------------------------|
----------------------------------------|
--0--0--5--3--1--0---5--3--1--0---0--0--|
--0--0----------------------------0--0--|


  PM PM PM PM PM PM  PM PM   PM PM   PM PM  
  S  S  S  S  S  E.  S  S  S S  S  S S  S   
-------------------------------------------|
-------------------------------------------|
-------------------------------------------|
-------------------------------------------|
--0--0--5--3--1--0---0--0----0--0----0--0--|
--0--0---------------0--0----0--0----0--0--|


  PM PM PM PM PM PM  PM PM PM PM  PM PM                                 
  S  S  S  S  S  E.  S  S  S  E.  S  S     E  S S S S E  E  S S S S E   
----------------------------------------|------------------------------|
----------------------------------------|------------------------------|
----------------------------------------|------------------------------|
----------------------------------------|------------------------------|
--0--0--5--3--1--0---5--3--1--0---0--0--|--3--3-3-3-3-3--5--5-5-5-5-5--|
--0--0----------------------------0--0--|--3--3-3-3-3-3--5--5-5-5-5-5--|


  S S E  E  S S S S E  E  S S    S S E  E  S S S S E  E  S S  
------------------------------|------------------------------|
------------------------------|------------------------------|
------------------------------|------------------------------|
------------------------------|------------------------------|
--3-3-3--3--3-3-3-3-3--3--3-3-|--5-5-5--5--5-5-5-5-5--5--5-5-|
--3-3-3--3--3-3-3-3-3--3--3-3-|--5-5-5--5--5-5-5-5-5--5--5-5-|


  S S E  E  S S S S E  E  S S    S S E  E  S S S S E  E  S S  
------------------------------|------------------------------|
------------------------------|------------------------------|
------------------------------|------------------------------|
------------------------------|------------------------------|
--8-8-8--8--8-8-8-8-8--8--8-8-|--0-0-0--0--0-0-0-0-0--0--0-0-|
--7-7-7--7--7-7-7-7-7--7--7-7-|--0-0-0--0--0-0-0-0-0--0--0-0-|


  S S E  E  S S S S E  E  S S    S S E  E  S S S S E  E  S S  
------------------------------|------------------------------|
------------------------------|------------------------------|
------------------------------|------------------------------|
------------------------------|------------------------------|
--3-3-3--3--3-3-3-3-3--3--3-3-|--5-5-5--5--5-5-5-5-5--5--5-5-|
--3-3-3--3--3-3-3-3-3--3--3-3-|--5-5-5--5--5-5-5-5-5--5--5-5-|


  S S E  E  S S S S E  E  S S    S S E  E  S S S S E  E  S S  
------------------------------|------------------------------|
------------------------------|------------------------------|
------------------------------|------------------------------|
------------------------------|------------------------------|
--8-8-8--8--8-8-8-8-8--8--8-8-|--0-0-0--0--0-0-0-0-0--0--0-0-|
--7-7-7--7--7-7-7-7-7--7--7-7-|--0-0-0--0--0-0-0-0-0--0--0-0-|


   E   E   E   E   E   E   E   E      E   E   E   E   E   E   E   E   
----------------------------------|----------------------------------|
----------------------------------|----------------------------------|
----------------------------------|----------------------------------|
----------14------------------15--|----------17----------15------14--|
----------------------12----------|----------------------------------|
--12--12------12--12------12------|--12--12------12--12------12------|


   E   E   E   E   E   E   E   E      E   E   E   E   E   E   E   E   
----------------------------------|----------------------------------|
----------------------------------|----------------------------------|
----------------------------------|----------------------------------|
----------14------------------15--|----------17----------20------19--|
----------------------12----------|----------------------------------|
--15--15------15--15------15------|--17--17------17--17------17------|


   E   E   E   E   E   E   E   E      E   E   E   E   E   E   E   E   
----------------------------------|----------------------------------|
----------------------------------|----------------------------------|
----------------------------------|----------------------------------|
----------14------------------15--|----------17----------15------14--|
----------------------12----------|----------------------------------|
--12--12------12--12------12------|--12--12------12--12------12------|


   E   E   E   E   E   E   E   E      E   E   E   E   E   E   E   E   
----------------------------------|----------------------------------|
----------------------------------|----------------------------------|
----------------------------------|----------------------------------|
----------14------------------15--|----------19----------20------22--|
----------------------12----------|----------------------------------|
--15--15------15--15------15------|--17--17------17--17------19---L--|


   S  S  S  S  S  S  E.   S  S  S  S  S  S  S  
--17-10-10-17-10-10-17---15-13-12-15-13-12-13-|
----------------------------------------------|
----------------------------------------------|
----------------------------------------------|
----------------------------------------------|
----------------------------------------------|


   S  S  S  S  S  S  S  E   S  S  S  S  S  S  S  
--18-17-13-17-15-12-15-13--------------15-17-18-|
---------------------------15-17-15-18----------|
------------------------------------------------|
------------------------------------------------|
------------------------------------------------|
------------------------------------------------|


   S  S  S  S  E   S  S  S  S  E   S  S  S  S  
--20-18-17----18--17-15-13--------------------|
-----------18--------------17-18--15-13-10-11-|
----------------------------------------------|
----------------------------------------------|
----------------------------------------------|
----------------------------------------------|


                         T                                                      
   |---3---|  |---3--|   |---3---|  |---3--|   |--3--|  |--3-|   |--3--| |---3--
   S   S   S  S  S   S   S   S   S  S  S   S   S S   S  S  S S   S  S  S S   S  
----------------10h-13h-17p-13p-10---------------------------8h-12p-8-----------
-------------11--------------------11---------------------10----------10--------
--10h-14p-10--------------------------10h-14p-10-9h-12p-9----------------9h-12p-
--------------------------------------------------------------------------------
--------------------------------------------------------------------------------
--------------------------------------------------------------------------------


  S S S S S S S S S  S S E  S S S    S S S S S S S S S S S S S S S S  
----------------------------------|----------------------------------|
----------------------------------|------------------------------3-5-|
--7-5-3---------------------------|----------------2-------2-3-5-----|
--------7-5-3---------------------|----------2-3-5---2-3-5-----------|
--------------7-5-8-10-8-7--5-3-1-|--0-1-3-5-------------------------|
----------------------------------|----------------------------------|


  S S S S S S S S S S S S S S  S S  
--6-5-3-8-6-5-3-5-6-5-6-8-6-8-10-8-|
-----------------------------------|
-----------------------------------|
-----------------------------------|
-----------------------------------|
-----------------------------------|


   S  S  S  S  S  S  S  E   S  S  S  S  S  S  S  
--13-10-10-10-13-10-10-17--10-10-10-13-10-10-10-|
------------------------------------------------|
------------------------------------------------|
------------------------------------------------|
------------------------------------------------|
------------------------------------------------|


   S  S  S   E   S  S  S  S  S  S  S  S  S  E   
--13-10-10S-20--10-10-20-18-17----18-17-15-----|
-------------------------------20--------------|
-------------------------------------------17--|
-----------------------------------------------|
-----------------------------------------------|
-----------------------------------------------|


   S  S  S  S  S  S  S  S  S  S  S  S  S  S  S  S  
--20----20----20----20----20----20----22-24-22-20-|
-----22----------23----------22-------------------|
-----------22----------24----------22-------------|
--------------------------------------------------|
--------------------------------------------------|
--------------------------------------------------|


   S   S   S  S  S  S  S  S   S   S  S  S  S  S  S   S   
--18h-22p-18------------------------------------18h-22h-|
-------------20------------------------------20---------|
----------------19------------------------19------------|
-------------------19------------------19---------------|
----------------------19------------19------------------|
-------------------------17h-20p-17---------------------|


   S  S   S   S  S   S   S  S   S   S  S   S   S  S   S   S  
--18-20h-24p-20-18h-22p-18-17h-20p-17-15h-18p-15-13h-17p-13-|
------------------------------------------------------------|
------------------------------------------------------------|
------------------------------------------------------------|
------------------------------------------------------------|
------------------------------------------------------------|


   S   S   S  E   S   S   S  S  S  S   S   S  S   S   S  
--20p-18p-17-----18p-17p-15-------17p-15p-13-15p-13p-12-|
-------------20-------------18-17-----------------------|
--------------------------------------------------------|
--------------------------------------------------------|
--------------------------------------------------------|
--------------------------------------------------------|


                         |---3---|  |---3---|  |---3---|  |---3---|  |---3---|  
   S   S   S  S   S   S  S   S   S  S   S   S  S   S   S  S   S   S  S   S   S  
--15p-13p-12-13p-12p-10--------------------------------------------------------|
------------------------17p-15p-13-15p-13p-11----------------------------------|
----------------------------------------------17p-15p-14-15p-14p-12-14p-12p-10-|
-------------------------------------------------------------------------------|
-------------------------------------------------------------------------------|
-------------------------------------------------------------------------------|


   |---3---|  |---3---|  |---3---|  |---3---|  |---3---|  |---3---|  |---3---|  
   S   S   S  S   S   S  S   S   S  S   S   S  S   S   S  S   S   S  S   S   S  
--------------------------------------------------------------------10h-12h-13-1
----------------------------------------------11h-13h-15-13h-15h-17-------------
--15p-14p-12-14p-12p-10-12h-14h-15-14h-15h-17-----------------------------------
--------------------------------------------------------------------------------
--------------------------------------------------------------------------------
--------------------------------------------------------------------------------


   |---3---|  |---3---|  |---3---|  |---3---|  |---3---|  |---3---|         
   S   S   S  S   S   S  S   S   S  S   S   S  S   S   S  S   S   S  Q      
--10h-12h-13-12h-13h-15-13h-15h-17-15h-17h-18-17h-18h-20-18h-20h-22-24~----|
---------------------------------------------------------------------------|
---------------------------------------------------------------------------|
---------------------------------------------------------------------------|
---------------------------------------------------------------------------|
---------------------------------------------------------------------------|


  E  
Добавлено: 19.07.2012
Другие материалы по этой песне:

Страница создана 21.04.2012
http://primanota.ru/drop-dead/killswitch-chords.htm
Привет, Гость.
Предлагаем пройти революционный курс по гитаре.
Подарок от PrimaNota.Ru, забирай!