PrimaNota.ru - самый крупный в мире бесплатный архив песенных текстов, аккордов, табулатур и нот


Drop Dead - Drop Dead - таба, бас-таба, драм-таба, видео

Регистрация Запомнить меня
Войти через:  Facebook Google Twitter Vk Yandex Mail.ru

Drop Dead - Drop Dead - таба, бас-таба, драм-таба, видео

Печатать
Просмотров: 162
Drop Dead
Drop Dead
Drop Dead
Kwonnie - kwonnie@live.com

Center Guitar



                             PM PM           PM PM        
     W                   S S S  S  E  E  S S S  S  E  E   
D||-------------------|----------------------------------|
A||-------------------|----------------------------------|
F||-------------------|----------------------------------|
C||-------------------|----------------------------------|
G||-------------------|----------------------------------|
C||-------------------|--0-3-0--0--0--2--0-3-0--0--0--2--|


      PM PM       PM PM PM PM PM PM PM PM        PM PM           PM PM        
  S S S  S  E  E  S  S  S  S  S  S  S  S     S S S  S  E  E  S S S  S  E  E   
------------------------------------------|----------------------------------|
------------------------------------------|----------------------------------|
------------------------------------------|----------------------------------|
------------------------------------------|----------------------------------|
------------------------------------------|----------------------------------|
--0-3-0--0--0--2--7--5--3--0--5--3--2--0--|--0-3-0--0--0--2--0-3-0--0--0--2--|


      PM PM       PM PM PM PM PM PM PM PM        PM PM           PM PM        
  S S S  S  E  E  S  S  S  S  S  S  S  S     S S S  S  E  E  S S S  S  E  E   
------------------------------------------|----------------------------------|
------------------------------------------|----------------------------------|
------------------------------------------|----------------------------------|
------------------------------------------|----------------------------------|
---------------------------------------0--|----------------------------------|
--0-3-0--0--0--2--0--2--3--5--2--3--5-----|--0-3-0--0--0--2--0-3-0--0--0--2--|


      PM PM       PM PM PM PM PM PM PM PM        PM PM           PM PM        
  S S S  S  E  E  S  S  S  S  S  S  S  S     S S S  S  E  E  S S S  S  E  E   
------------------------------------------|----------------------------------|
------------------------------------------|----------------------------------|
------------------------------------------|----------------------------------|
------------------------------------------|----------------------------------|
------------------------------------------|----------------------------------|
--0-3-0--0--0--2--7--5--3--0--5--3--2--0--|--0-3-0--0--0--2--0-3-0--0--0--2--|


      PM PM       PM PM PM PM PM PM PM PM        PM PM                 
  S S S  S  E  E  S  S  S  S  S  S  S  S     S S S  S  E  E  H         
------------------------------------------|---------------------------|
------------------------------------------|---------------------------|
------------------------------------------|---------------------------|
------------------------------------------|---------------------------|
---------------------------------------0--|---------------------------|
--0-3-0--0--0--2--0--2--3--5--2--3--5-----|--0-3-0--0--0--2-----------|


  S S S S S S S S S S S S S S S S    S S S S S S S E  S S S S S S S  
----------------------------------|---------------------------------|
----------------------------------|---------------------------------|
----------------------------------|---------------------------------|
----------------------------------|---------------------------------|
----------------------------------|---------------------------------|
--0-3-0-0-0-2-0-5-0-0-0-0-0-0-0-0-|--0-3-0-0-0-2-0-7--5-3-2-0-3-2-0-|


  S S S S S S S S S S S S S S S S    S S S S S S S E  S S S S S S S  
----------------------------------|---------------------------------|
----------------------------------|---------------------------------|
----------------------------------|---------------------------------|
----------------------------------|---------------------------------|
----------------------------------|---------------------------------|
--0-3-0-0-0-2-0-5-0-0-0-0-0-0-0-0-|--0-3-0-0-0-2-0-8--7-5-3-5-3-2-0-|


  S S S S S S S S S S S S S S S S    S S S S S S S E  S S S S S S S  
----------------------------------|---------------------------------|
----------------------------------|---------------------------------|
----------------------------------|---------------------------------|
----------------------------------|---------------------------------|
----------------------------------|---------------------------------|
--0-3-0-0-0-2-0-5-0-0-0-0-0-0-0-0-|--0-3-0-0-0-2-0-7--5-3-2-0-3-2-0-|


  S S S S S S S S S S S S S S S S    S S S S S S S S E.  E.  E   
----------------------------------|-----------------------------|
----------------------------------|-----------------------------|
----------------------------------|-----------------------------|
----------------------------------|-----------------------------|
----------------------------------|-----------------------------|
--0-3-0-0-0-2-0-5-0-0-0-0-0-0-0-0-|--0-3-0-0-0-2-0-0-8---7---5--|


  PM PM PM PM PM PM PM PM PM PM PM PM    PM PM PM PM PM PM PM PM PM PM PM PM  
  S  S  E  S  S  E  S  S  E  S  S  E     S  S  E  S  S  E  S  S  E  S  S  E   
--------------------------------------|--------------------------------------|
--------------------------------------|--------------------------------------|
--------------------------------------|--------------------------------------|
--------------------------------------|--------------------------------------|
--0--0--0--0--0--0--0--0--0--0--0--0--|--0--0--0--0--0--0--0--0--0--0--0--0--|
--0--0--0--0--0--0--0--0--0--0--0--0--|--0--0--0--0--0--0--0--0--0--0--0--0--|


  PM PM PM PM PM PM PM PM PM         PM PM PM      PM PM PM       
                                     |--3--|       |--3--|        
  S  S  E  S  S  E  S  S  E  Q       E  E  E  Q    E  E  E  Q     
----------------------------------|------------------------------|
----------------------------------|------------------------------|
----------------------------------|------------------------------|
-----------------------------3----|------------------------------|
--0--0--0--0--0--0--0--0--0--3----|--0--0--0-------0--0--0-------|
--0--0--0--0--0--0--0--0--0--3----|--0--0--0-------0--0--0-------|


  PM PM PM PM PM PM PM PM PM PM PM PM    PM PM PM PM PM PM PM PM PM PM PM PM  
  S  S  E  S  S  E  S  S  E  S  S  E     S  S  E  S  S  E  S  S  E  S  S  E   
--------------------------------------|--------------------------------------|
--------------------------------------|--------------------------------------|
--------------------------------------|--------------------------------------|
--------------------------------------|--------------------------------------|
--0--0--0--0--0--0--0--0--0--0--0--0--|--0--0--0--0--0--0--0--0--0--0--0--0--|
--2--2--2--2--2--2--2--2--2--2--2--2--|--2--2--2--2--2--2--2--2--2--2--2--2--|


  PM PM PM PM PM PM PM PM PM         PM PM PM      PM PM PM       
                                     |--3--|       |--3--|        
  S  S  E  S  S  E  S  S  E  Q       E  E  E  Q    E  E  E  Q     
----------------------------------|------------------------------|
----------------------------------|------------------------------|
----------------------------------|------------------------------|
-----------------------------7----|------------------------------|
--0--0--0--0--0--0--0--0--0--7----|--0--0--0-------0--0--0-------|
--2--2--2--2--2--2--2--2--2--7----|--0--0--0-------0--0--0-------|


  E  E  Q    E  E  Q       E  E  Q    Q    Q       E  E  Q    E  E  Q     
------------------------|-----------------------|------------------------|
------------------------|-----------------------|------------------------|
------------------------|-----------------------|------------------------|
--7--7-------7--7-------|--7--7-------7----8----|--7--7-------7--7-------|
--7--7-------7--7-------|--7--7-------7----8----|--7--7-------7--7-------|
--7--7-------7--7-------|--7--7-------7----8----|--7--7-------7--7-------|


                           PM PM PM PM PM PM PM PM PM PM PM PM  
  E  E  Q    Q     Q       S  S  E  S  S  E  S  S  E  S  S  E   
------------------------|--------------------------------------|
------------------------|--------------------------------------|
------------------------|--------------------------------------|
--7--7-------7----10----|--------------------------------------|
--7--7-------7----10----|--0--0--0--0--0--0--0--0--0--0--0--0--|
--7--7-------7----10----|--0--0--0--0--0--0--0--0--0--0--0--0--|


  PM PM PM PM PM PM PM PM PM PM PM PM    PM PM PM PM PM PM PM PM PM       
  S  S  E  S  S  E  S  S  E  S  S  E     S  S  E  S  S  E  S  S  E  Q     
--------------------------------------|----------------------------------|
--------------------------------------|----------------------------------|
--------------------------------------|----------------------------------|
--------------------------------------|-----------------------------3----|
--0--0--0--0--0--0--0--0--0--0--0--0--|--0--0--0--0--0--0--0--0--0--3----|
--0--0--0--0--0--0--0--0--0--0--0--0--|--0--0--0--0--0--0--0--0--0--3----|


  PM PM PM      PM PM PM         PM PM PM PM PM PM PM PM PM PM PM PM  
  |--3--|       |--3--|                                               
  E  E  E  Q    E  E  E  Q       S  S  E  S  S  E  S  S  E  S  S  E   
------------------------------|--------------------------------------|
------------------------------|--------------------------------------|
------------------------------|--------------------------------------|
------------------------------|--------------------------------------|
--0--0--0-------0--0--0-------|--3--3--3--3--3--3--3--3--3--3--3--3--|
--0--0--0-------0--0--0-------|--2--2--2--2--2--2--2--2--2--2--2--2--|


  PM PM PM PM PM PM PM PM PM PM PM PM    PM PM PM PM PM PM PM PM PM       
  S  S  E  S  S  E  S  S  E  S  S  E     S  S  E  S  S  E  S  S  E  Q     
--------------------------------------|----------------------------------|
--------------------------------------|----------------------------------|
--------------------------------------|----------------------------------|
--------------------------------------|-----------------------------7----|
--3--3--3--3--3--3--3--3--3--3--3--3--|--3--3--3--3--3--3--3--3--3--7----|
--2--2--2--2--2--2--2--2--2--2--2--2--|--2--2--2--2--2--2--2--2--2--7----|


  H.            Q        E  E  Q    E  E  Q       E  E  Q    Q    Q     
----------------------|------------------------|-----------------------|
----------------------|------------------------|-----------------------|
----------------------|------------------------|-----------------------|
---------------12\----|--7--7-------7--7-------|--7--7-------7----8----|
---------------12\----|--7--7-------7--7-------|--7--7-------7----8----|
---------------12\----|--7--7-------7--7-------|--7--7-------7----8----|


  E  E  Q    E  E  Q       E  E  Q    Q     Q       E  E  Q    E  E  Q     
------------------------|------------------------|------------------------|
------------------------|------------------------|------------------------|
------------------------|------------------------|------------------------|
--7--7-------7--7-------|--7--7-------7----10----|--7--7-------7--7-------|
--7--7-------7--7-------|--7--7-------7----10----|--7--7-------7--7-------|
--7--7-------7--7-------|--7--7-------7----10----|--7--7-------7--7-------|


  E  E  Q    Q    Q       E  E  Q    E  E  Q       E  E  Q    Q     Q     
-----------------------|------------------------|------------------------|
-----------------------|------------------------|------------------------|
-----------------------|------------------------|------------------------|
--7--7-------7----8----|--7--7-------7--7-------|--7--7-------7----10----|
--7--7-------7----8----|--7--7-------7--7-------|--7--7-------7----10----|
--7--7-------7----8----|--7--7-------7--7-------|--7--7-------7----10----|


           T          T          T          T          T      
   S   S   S  S   S   S  S   S   S  S   S   S  S   S   S   S  
-------------------------------------------------------------|
-------------------------------------------------------------|
--12h-15h-24-12h-15h-22-12h-15h-21-12h-15h-19-12h-15h-22s-24-|
-------------------------------------------------------------|
-------------------------------------------------------------|
-------------------------------------------------------------|


           T          T          T          T          T      
   S   S   S  S   S   S  S   S   S  S   S   S  S   S   S   S  
-------------------------------------------------------------|
-------------------------------------------------------------|
--12h-15h-24-12h-15h-22-12h-15h-21-12h-15h-19-12h-15h-21s-22-|
-------------------------------------------------------------|
-------------------------------------------------------------|
-------------------------------------------------------------|


  S S S S S S S S S S S S S S S S    S S S S S S S S S S S S S S S S  
----------------------------------|----------------------------------|
----------------------------------|----------------------------------|
----------------------------------|----------------------------------|
----------------------------------|----------------------------------|
--0-0-0---0-0-0-0-0---0-0-0---0-0-|--0-0-0---0-0-0-0-0---0-0-0---0-0-|
--0-0-0---0-0-0-0-0---0-0-0---0-0-|--0-0-0---0-0-0-0-0---0-0-0---0-0-|


           T          T          T          T          T      
   S   S   S  S   S   S  S   S   S  S   S   S  S   S   S   S  
-------------------------------------------------------------|
-------------------------------------------------------------|
--12h-15h-24-12h-15h-22-12h-15h-21-12h-15h-19-12h-15h-22s-24-|
-------------------------------------------------------------|
-------------------------------------------------------------|
-------------------------------------------------------------|


           T          T          T          T          T      
   S   S   S  S   S   S  S   S   S  S   S   S  S   S   S   S  
-------------------------------------------------------------|
-------------------------------------------------------------|
--12h-15h-24-12h-15h-22-12h-15h-21-12h-15h-19-12h-15h-21s-22-|
-------------------------------------------------------------|
-------------------------------------------------------------|
-------------------------------------------------------------|


  S S S S S S S S S S S S S S S S    S S S S S S S S S S S S S S S S  
----------------------------------|----------------------------------|
----------------------------------|----------------------------------|
----------------------------------|----------------------------------|
----------------------------------|----------------------------------|
--0-0-0---0-0-0-0-0---0-0-0---0-0-|--0-0-0---0-0-0-0-0---0-0-0---0-0-|
--0-0-0---0-0-0-0-0---0-0-0---0-0-|--0-0-0---0-0-0-0-0---0-0-0---0-0-|


  W                   S S S S S S S S S S S S S S S S  
-------------------|----------------------------------|
-------------------|----------------------------------|
-------------------|----------------------------------|
-------------------|----------------------------------|
-------------------|--0-0-0-0-0---0-0-0-0---0-0---0-0-|
-------------------|--0-0-0-0-0---0-0-0-0---0-0---0-0-|


  S S S S S S S S S S S S S S S S    S S S S S S S S S S S S S S S S  
----------------------------------|----------------------------------|
----------------------------------|----------------------------------|
----------------------------------|----------------------------------|
----------------------------------|----------------------------------|
--0-0-0---0-0-0-0---0-0---0-0-0-0-|--0-0-0-0-0---0-0-0-0---0-0---0-0-|
--0-0-0---0-0-0-0---0-0---0-0-0-0-|--0-0-0-0-0---0-0-0-0---0-0---0-0-|


  S S S S S S S S S S S S S S S S    S S S S S S S S S S S S S S S S  
----------------------------------|----------------------------------|
----------------------------------|----------------------------------|
----------------------------------|----------------------------------|
----------------------------------|----------------------------------|
--0-0-0---0-0-0-0---0-0---0-0-0-0-|--0-0-0-0-0---0-0-0-0---0-0---0-0-|
--0-0-0---0-0-0-0---0-0---0-0-0-0-|--0-0-0-0-0---0-0-0-0---0-0---0-0-|


  S S S S S S S S S S S S S S S S    S S S S S S S S S S S S S S S S  
----------------------------------|----------------------------------|
----------------------------------|----------------------------------|
----------------------------------|----------------------------------|
----------------------------------|----------------------------------|
--0-0-0---0-0-0-0---0-0---0-0-0-0-|--0-0-0-0-0---0-0-0-0---0-0---0-0-|
--0-0-0---0-0-0-0---0-0---0-0-0-0-|--0-0-0-0-0---0-0-0-0---0-0---0-0-|


  W                    E   E   E   E   E   E   E   E   
-------------------|----------------------------------|
-------------------|----------------------------------|
-------------------|----------------------------------|
-------------------|----------14----------15------14--|
-------------------|------12----------13--------------|
-------------------|--12----------12----------12------|


   E   E   E   E   S   S   E   E   E     E   E  E  E   E  E   E   E   
--------------------------------------|------------------------------|
--------------------------------------|------------------------------|
------------------12h-15p-12----------|------------------------------|
------14--15------------------15--14--|-----10--------12---------14--|
--------------------------------------|---------8---------8----------|
--12----------12----------------------|--8---------8---------10------|


   E   E   E   E   E   E   E   E      E   E   E   E   E   E   E   E   
----------------------------------|----------------------------------|
----------------------------------|----------------------------------|
----------------------12----------|----------------------------------|
------15------14----------15--14--|----------14----------15------14--|
----------------------------------|------12----------13--------------|
--12------12------12--------------|--12----------12----------12------|


   E   E   E   E   S   S   E   E   E     E   E  E  E   E  E   E   E   
--------------------------------------|------------------------------|
--------------------------------------|------------------------------|
------------------12h-15p-12----------|------------------------------|
------14--15------------------15--14--|-----10--------12---------14--|
--------------------------------------|---------8---------8----------|
--12----------12----------------------|--8---------8---------10------|


   E   E   E   E   E   E   E   E      E   E   E   E   E   E   E   E   
----------------------------------|----------------------------------|
----------------------------------|----------------------------------|
----------------------15----------|----------------------------------|
------15------14----------19--17--|----------17----------19------17--|
----------------------------------|------15----------17--------------|
--12------12------12--------------|--15----------15----------15------|


   E   E   E   E   S   S   E   E   E      E   E   E   E   E   E   E   E   
--------------------------------------|----------------------------------|
--------------------------------------|----------------------------------|
------------------15h-19p-15----------|----------------------------------|
------17--19------------------19--17--|------14----------15----------17--|
--------------------------------------|----------12----------12----------|
--15----------15----------------------|--12----------12----------14------|


   E   E   E   E   E   E   E   E      E   E   E   E   E   E   E   E   
----------------------------------|----------------------------------|
----------------------------------|----------------------------------|
----------------------15----------|----------------------------------|
------19------17----------19--17--|----------17----------19------17--|
----------------------------------|------15----------17--------------|
--15------15------15--------------|--15----------15----------15------|


   E   E   E   E   S   S   E   E   E      E   E   E   E   E   E   E   E   
--------------------------------------|----------------------------------|
--------------------------------------|----------------------------------|
------------------15h-19p-15----------|----------------------------------|
------17--19------------------19--17--|------14----------15----------17--|
--------------------------------------|----------12----------12----------|
--15----------15----------------------|--12----------12----------14------|


   E   E   E   E   E   E   E   E   
----------------------------------|
----------------------------------|
----------------------15----------|
------19------17----------19--17--|
----------------------------------|
--15------15------15--------------|


           T          T          T          T          T      
   S   S   S  S   S   S  S   S   S  S   S   S  S   S   S   S  
-------------------------------------------------------------|
-------------------------------------------------------------|
--12h-15h-24-12h-15h-22-12h-15h-21-12h-15h-19-12h-15h-22s-24-|
-------------------------------------------------------------|
-------------------------------------------------------------|
-------------------------------------------------------------|


           T          T          T          T          T      
   S   S   S  S   S   S  S   S   S  S   S   S  S   S   S   S  
-------------------------------------------------------------|
-------------------------------------------------------------|
--12h-15h-24-12h-15h-22-12h-15h-21-12h-15h-19-12h-15h-21s-22-|
-------------------------------------------------------------|
-------------------------------------------------------------|
-------------------------------------------------------------|


  S S S S S S S S S S S S S S S S    S S S S S S S S S S S S S S S S  
----------------------------------|----------------------------------|
----------------------------------|----------------------------------|
----------------------------------|----------------------------------|
----------------------------------|----------------------------------|
--0-0-0---0-0-0-0-0---0-0-0---0-0-|--0-0-0---0-0-0-0-0---0-0-0---0-0-|
--0-0-0---0-0-0-0-0---0-0-0---0-0-|--0-0-0---0-0-0-0-0---0-0-0---0-0-|


           T          T          T          T          T      
   S   S   S  S   S   S  S   S   S  S   S   S  S   S   S   S  
-------------------------------------------------------------|
-------------------------------------------------------------|
--12h-15h-24-12h-15h-22-12h-15h-21-12h-15h-19-12h-15h-22s-24-|
-------------------------------------------------------------|
-------------------------------------------------------------|
-------------------------------------------------------------|


           T          T          T          T          T      
   S   S   S  S   S   S  S   S   S  S   S   S  S   S   S   S  
-------------------------------------------------------------|
-------------------------------------------------------------|
--12h-15h-24-12h-15h-22-12h-15h-21-12h-15h-19-12h-15h-21s-22-|
-------------------------------------------------------------|
-------------------------------------------------------------|
-------------------------------------------------------------|


  S S S S S S S S S S S S S S S S    S S S S S S S S S S S S S S S S  
----------------------------------|----------------------------------|
----------------------------------|----------------------------------|
----------------------------------|----------------------------------|
----------------------------------|----------------------------------|
--0-0-0---0-0-0-0-0---0-0-0---0-0-|--0-0-0---0-0-0-0-0---0-0-0---0-0-|
--0-0-0---0-0-0-0-0---0-0-0---0-0-|--0-0-0---0-0-0-0-0---0-0-0---0-0-|


                      PM   PM PM PM PM   PM       PM PM               
  W                   Q    E  E  E  Q    E     E  E  E  E  Q    Q     
-------------------|------------------------|------------------------|
-------------------|------------------------|------------------------|
-------------------|------------------------|------------------------|
-------------------|--0----0--0--0--0----0--|-----0--0-----5----3----|
-------------------|--0----0--0--0--0----0--|-----0--0-----5----3----|
-------------------|--0----0--0--0--0----0--|-----0--0-----5----3----|


  PM   PM PM PM PM   PM       PM PM                   PM   PM PM PM PM   PM  
  Q    E  E  E  Q    E     E  E  E  E  E  E  Q        Q    E  E  E  Q    E   
------------------------|--------------------------|------------------------|
------------------------|--------------------------|------------------------|
------------------------|--------------------------|------------------------|
--0----0--0--0--0----0--|-----0--0-----5--5--7\----|--0----0--0--0--0----0--|
--0----0--0--0--0----0--|-----0--0-----5--5--7\----|--0----0--0--0--0----0--|
--0----0--0--0--0----0--|-----0--0-----5--5--7\----|--0----0--0--0--0----0--|


     PM PM                 PM   PM PM PM PM   PM       PM PM                 
  E  E  E  E  Q    Q       Q    E  E  E  Q    E     E  E  E  E  E  E  Q      
------------------------|------------------------|--------------------------|
------------------------|------------------------|--------------------------|
------------------------|------------------------|--------------------------|
-----0--0-----5----3----|--0----0--0--0--0----0--|-----0--0-----5--5--7\----|
-----0--0-----5----3----|--0----0--0--0--0----0--|-----0--0-----5--5--7\----|
-----0--0-----5----3----|--0----0--0--0--0----0--|-----0--0-----5--5--7\----|


  W                   W                   W                   W                 
-------------------|-------------------|-------------------|-------------------|
-------------------|-------------------|-------------------|-------------------|
-------------------|-------------------|-------------------|-------------------|
-------------------|-------------------|-------------------|-------------------|
-------------------|-------------------|-------------------|-------------------|
-------------------|-------------------|-------------------|-------------------|


                  PM PM PM PM                    PM PM       
  Q    E   E   E  S  E  S  E     E  Q     E   E  S  S  Q     
------------------------------|-----------------------------|
------------------------------|-----------------------------|
------------------------------|------------------------9----|
--0----7S--5S--8--0--0--0--0--|--0--7S----5S--8--0--0--8----|
--0----7S--5S--8--0--0--0--0--|--0--7S----5S--8--0--0--7----|
--0----7S--5S--8--0--0--0--0--|--0--7S----5S--8--0--0-------|


                  PM PM PM PM                    PM PM       
  Q    E   E   E  S  E  S  E     E  Q     E   E  S  S  Q     
------------------------------|-----------------------------|
------------------------------|-----------------------------|
------------------------------|------------------------9----|
--0----7S--5S--8--0--0--0--0--|--0--7S----5S--8--0--0--8----|
--0----7S--5S--8--0--0--0--0--|--0--7S----5S--8--0--0--7----|
--0----7S--5S--8--0--0--0--0--|--0--7S----5S--8--0--0-------|


                  PM PM PM PM                    PM PM       
  Q    E   E   E  S  E  S  E     E  Q     E   E  S  S  Q     
------------------------------|-----------------------------|
------------------------------|-----------------------------|
------------------------------|------------------------9----|
--0----7S--5S--8--0--0--0--0--|--0--7S----5S--8--0--0--8----|
--0----7S--5S--8--0--0--0--0--|--0--7S----5S--8--0--0--7----|
--0----7S--5S--8--0--0--0--0--|--0--7S----5S--8--0--0-------|


                  PM PM PM PM                    PM PM       
  Q    E   E   E  S  E  S  E     E  Q     E   E  S  S  Q     
------------------------------|-----------------------------|
------------------------------|-----------------------------|
------------------------------|------------------------9----|
--0----7S--5S--8--0--0--0--0--|--0--7S----5S--8--0--0--8----|
--0----7S--5S--8--0--0--0--0--|--0--7S----5S--8--0--0--7----|
--0----7S--5S--8--0--0--0--0--|--0--7S----5S--8--0--0-------|


   E  E   E   E   E  Q     E     Q     E   E   E  Q     E   
------------------------------|----------------------------|
--11-----11--11--11-------11--|-------11--11--11-------11--|
--14-----14--14--14-------14--|-------14--14--14-------14--|
------------------------------|----------------------------|
------------------------------|----------------------------|
------------------------------|----------------------------|


  Q     E   E   E  Q     E     Q     E   E   E  E     Q      
----------------------------|-------------------------------|
-------11--11--11-------11--|-------11--11--11--------------|
-------14--14--14-------14--|-------14--14--14-----<>14b----|
----------------------------|-------------------------------|
----------------------------|-------------------------------|
----------------------------|-------------------------------|


   E  E   E   E   E  Q     E     Q     E   E   E  Q     E   
------------------------------|----------------------------|
--11-----11--11--11-------11--|-------11--11--11-------11--|
--14-----14--14--14-------14--|-------14--14--14-------14--|
------------------------------|----------------------------|
------------------------------|----------------------------|
------------------------------|----------------------------|


  Q     E   E   E  Q     E     Q     E   E   E  E     Q      
----------------------------|-------------------------------|
-------11--11--11-------11--|-------11--11--11--------------|
-------14--14--14-------14--|-------14--14--14-----<>14b----|
----------------------------|-------------------------------|
----------------------------|-------------------------------|
----------------------------|-------------------------------|


  W                   W                   W                 
-------------------|-------------------|-------------------|
-------------------|-------------------|-------------------|
-------------------|-------------------|-------------------|
-------------------|-------------------|-------------------|
-------------------|-------------------|-------------------|
-------------------|-------------------|-------------------|


  W                  
-------------------||
-------------------||
-------------------||
-------------------||
-------------------||
-------------------||



eft Guitar



         PM PM           PM PM              PM PM           PM PM        
     S S S  S  E  E  S S S  S  E  E     S S S  S  E  E  S S S  S  E  E   
D||----------------------------------|----------------------------------|
A||----------------------------------|----------------------------------|
F||----------------------------------|----------------------------------|
C||----------------------------------|----------------------------------|
G||----------------------------------|----------------------------------|
C||--0-3-0--0--0--2--0-3-0--0--0--2--|--0-3-0--0--0--2--0-3-0--0--0--2--|


      PM PM       PM PM PM PM PM PM PM PM        PM PM           PM PM        
  S S S  S  E  E  S  S  S  S  S  S  S  S     S S S  S  E  E  S S S  S  E  E   
------------------------------------------|----------------------------------|
------------------------------------------|----------------------------------|
------------------------------------------|----------------------------------|
------------------------------------------|----------------------------------|
------------------------------------------|----------------------------------|
--0-3-0--0--0--2--7--5--3--0--5--3--2--0--|--0-3-0--0--0--2--0-3-0--0--0--2--|


      PM PM       PM PM PM PM PM PM PM PM        PM PM           PM PM        
  S S S  S  E  E  S  S  S  S  S  S  S  S     S S S  S  E  E  S S S  S  E  E   
------------------------------------------|----------------------------------|
------------------------------------------|----------------------------------|
------------------------------------------|----------------------------------|
------------------------------------------|----------------------------------|
---------------------------------------0--|----------------------------------|
--0-3-0--0--0--2--0--2--3--5--2--3--5-----|--0-3-0--0--0--2--0-3-0--0--0--2--|


      PM PM       PM PM PM PM PM PM PM PM        PM PM           PM PM        
  S S S  S  E  E  S  S  S  S  S  S  S  S     S S S  S  E  E  S S S  S  E  E   
------------------------------------------|----------------------------------|
------------------------------------------|----------------------------------|
------------------------------------------|----------------------------------|
------------------------------------------|----------------------------------|
------------------------------------------|----------------------------------|
--0-3-0--0--0--2--7--5--3--0--5--3--2--0--|--0-3-0--0--0--2--0-3-0--0--0--2--|


      PM PM       PM PM PM PM PM PM PM PM        PM PM                 
  S S S  S  E  E  S  S  S  S  S  S  S  S     S S S  S  E  E  H         
------------------------------------------|---------------------------|
------------------------------------------|---------------------------|
------------------------------------------|---------------------------|
------------------------------------------|---------------------------|
---------------------------------------0--|---------------------------|
--0-3-0--0--0--2--0--2--3--5--2--3--5-----|--0-3-0--0--0--2-----------|


  S S S S S S S S S S S S S S S S    S S S S S S S E  S S S S S S S  
----------------------------------|---------------------------------|
----------------------------------|---------------------------------|
----------------------------------|---------------------------------|
----------------------------------|---------------------------------|
----------------------------------|---------------------------------|
--0-3-0-0-0-2-0-5-0-0-0-0-0-0-0-0-|--0-3-0-0-0-2-0-7--5-3-2-0-3-2-0-|


  S S S S S S S S S S S S S S S S    S S S S S S S E  S S S S S S S  
----------------------------------|---------------------------------|
----------------------------------|---------------------------------|
----------------------------------|---------------------------------|
----------------------------------|---------------------------------|
----------------------------------|---------------------------------|
--0-3-0-0-0-2-0-5-0-0-0-0-0-0-0-0-|--0-3-0-0-0-2-0-8--7-5-3-5-3-2-0-|


  S S S S S S S S S S S S S S S S    S S S S S S S E  S S S S S S S  
----------------------------------|---------------------------------|
----------------------------------|---------------------------------|
----------------------------------|---------------------------------|
----------------------------------|---------------------------------|
----------------------------------|---------------------------------|
--0-3-0-0-0-2-0-5-0-0-0-0-0-0-0-0-|--0-3-0-0-0-2-0-7--5-3-2-0-3-2-0-|


  S S S S S S S S S S S S S S S S    S S S S S S S S E.  E.  E   
----------------------------------|-----------------------------|
----------------------------------|-----------------------------|
----------------------------------|-----------------------------|
----------------------------------|-----------------------------|
----------------------------------|-----------------------------|
--0-3-0-0-0-2-0-5-0-0-0-0-0-0-0-0-|--0-3-0-0-0-2-0-0-8---7---5--|


  PM PM PM PM PM PM PM PM PM PM PM PM    PM PM PM PM PM PM PM PM PM PM PM PM  
  S  S  E  S  S  E  S  S  E  S  S  E     S  S  E  S  S  E  S  S  E  S  S  E   
--------------------------------------|--------------------------------------|
--------------------------------------|--------------------------------------|
--------------------------------------|--------------------------------------|
--------------------------------------|--------------------------------------|
--0--0--0--0--0--0--0--0--0--0--0--0--|--0--0--0--0--0--0--0--0--0--0--0--0--|
--0--0--0--0--0--0--0--0--0--0--0--0--|--0--0--0--0--0--0--0--0--0--0--0--0--|


  PM PM PM PM PM PM PM PM PM         PM PM PM      PM PM PM       
                                     |--3--|       |--3--|        
  S  S  E  S  S  E  S  S  E  Q       E  E  E  Q    E  E  E  Q     
----------------------------------|------------------------------|
----------------------------------|------------------------------|
----------------------------------|------------------------------|
-----------------------------3----|------------------------------|
--0--0--0--0--0--0--0--0--0--3----|--0--0--0-------0--0--0-------|
--0--0--0--0--0--0--0--0--0--3----|--0--0--0-------0--0--0-------|


  PM PM PM PM PM PM PM PM PM PM PM PM    PM PM PM PM PM PM PM PM PM PM PM PM  
  S  S  E  S  S  E  S  S  E  S  S  E     S  S  E  S  S  E  S  S  E  S  S  E   
--------------------------------------|--------------------------------------|
--------------------------------------|--------------------------------------|
--------------------------------------|--------------------------------------|
--------------------------------------|--------------------------------------|
--0--0--0--0--0--0--0--0--0--0--0--0--|--0--0--0--0--0--0--0--0--0--0--0--0--|
--2--2--2--2--2--2--2--2--2--2--2--2--|--2--2--2--2--2--2--2--2--2--2--2--2--|


  PM PM PM PM PM PM PM PM PM         PM PM PM      PM PM PM       
                                     |--3--|       |--3--|        
  S  S  E  S  S  E  S  S  E  Q       E  E  E  Q    E  E  E  Q     
----------------------------------|------------------------------|
----------------------------------|------------------------------|
----------------------------------|------------------------------|
-----------------------------7----|------------------------------|
--0--0--0--0--0--0--0--0--0--7----|--0--0--0-------0--0--0-------|
--2--2--2--2--2--2--2--2--2--7----|--0--0--0-------0--0--0-------|


  E  E  Q    E  E  Q       E  E  Q    Q    Q       E  E  Q    E  E  Q     
------------------------|-----------------------|------------------------|
------------------------|-----------------------|------------------------|
------------------------|-----------------------|------------------------|
--7--7-------7--7-------|--7--7-------7----8----|--7--7-------7--7-------|
--7--7-------7--7-------|--7--7-------7----8----|--7--7-------7--7-------|
--7--7-------7--7-------|--7--7-------7----8----|--7--7-------7--7-------|


                           PM PM PM PM PM PM PM PM PM PM PM PM  
  E  E  Q    Q     Q       S  S  E  S  S  E  S  S  E  S  S  E   
------------------------|--------------------------------------|
------------------------|--------------------------------------|
------------------------|--------------------------------------|
--7--7-------7----10----|--------------------------------------|
--7--7-------7----10----|--0--0--0--0--0--0--0--0--0--0--0--0--|
--7--7-------7----10----|--0--0--0--0--0--0--0--0--0--0--0--0--|


  PM PM PM PM PM PM PM PM PM PM PM PM    PM PM PM PM PM PM PM PM PM       
  S  S  E  S  S  E  S  S  E  S  S  E     S  S  E  S  S  E  S  S  E  Q     
--------------------------------------|----------------------------------|
--------------------------------------|----------------------------------|
--------------------------------------|----------------------------------|
--------------------------------------|-----------------------------3----|
--0--0--0--0--0--0--0--0--0--0--0--0--|--0--0--0--0--0--0--0--0--0--3----|
--0--0--0--0--0--0--0--0--0--0--0--0--|--0--0--0--0--0--0--0--0--0--3----|


  PM PM PM      PM PM PM         PM PM PM PM PM PM PM PM PM PM PM PM  
  |--3--|       |--3--|                                               
  E  E  E  Q    E  E  E  Q       S  S  E  S  S  E  S  S  E  S  S  E   
------------------------------|--------------------------------------|
------------------------------|--------------------------------------|
------------------------------|--------------------------------------|
------------------------------|--------------------------------------|
--0--0--0-------0--0--0-------|--3--3--3--3--3--3--3--3--3--3--3--3--|
--0--0--0-------0--0--0-------|--2--2--2--2--2--2--2--2--2--2--2--2--|


  PM PM PM PM PM PM PM PM PM PM PM PM    PM PM PM PM PM PM PM PM PM       
  S  S  E  S  S  E  S  S  E  S  S  E     S  S  E  S  S  E  S  S  E  Q     
--------------------------------------|----------------------------------|
--------------------------------------|----------------------------------|
--------------------------------------|----------------------------------|
--------------------------------------|-----------------------------7----|
--3--3--3--3--3--3--3--3--3--3--3--3--|--3--3--3--3--3--3--3--3--3--7----|
--2--2--2--2--2--2--2--2--2--2--2--2--|--2--2--2--2--2--2--2--2--2--7----|


  PM PM PM      PM PM PM                                  
  |--3--|       |--3--|                                   
  E  E  E  Q    E  E  E   Q        E  E  Q    E  E  Q     
--------------------------------|------------------------|
--------------------------------|------------------------|
--------------------------------|------------------------|
-------------------------12\----|--7--7-------7--7-------|
--0--0--0-------0--0--0--12\----|--7--7-------7--7-------|
--0--0--0-------0--0--0--12\----|--7--7-------7--7-------|


  E  E  Q    Q    Q       E  E  Q    E  E  Q       E  E  Q    Q     Q     
-----------------------|------------------------|------------------------|
-----------------------|------------------------|------------------------|
-----------------------|------------------------|------------------------|
--7--7-------7----8----|--7--7-------7--7-------|--7--7-------7----10----|
--7--7-------7----8----|--7--7-------7--7-------|--7--7-------7----10----|
--7--7-------7----8----|--7--7-------7--7-------|--7--7-------7----10----|


  E  E  Q    E  E  Q       E  E  Q    Q    Q       E  E  Q    E  E  Q     
------------------------|-----------------------|------------------------|
------------------------|-----------------------|------------------------|
------------------------|-----------------------|------------------------|
--7--7-------7--7-------|--7--7-------7----8----|--7--7-------7--7-------|
--7--7-------7--7-------|--7--7-------7----8----|--7--7-------7--7-------|
--7--7-------7--7-------|--7--7-------7----8----|--7--7-------7--7-------|


  E  E  Q    Q     Q       W                   W                 
------------------------|-------------------|-------------------|
------------------------|-------------------|-------------------|
------------------------|-------------------|-------------------|
--7--7-------7----10----|--8----------------|--5----------------|
--7--7-------7----10----|--8----------------|--5----------------|
--7--7-------7----10----|--8----------------|--5----------------|


  S S S S S S S S S S S S S S S S    S S S S S S S S S S S S S S S S  
----------------------------------|----------------------------------|
----------------------------------|----------------------------------|
----------------------------------|----------------------------------|
----------------------------------|----------------------------------|
--0-0-0---0-0-0-0-0---0-0-0---0-0-|--0-0-0---0-0-0-0-0---0-0-0---0-0-|
--0-0-0---0-0-0-0-0---0-0-0---0-0-|--0-0-0---0-0-0-0-0---0-0-0---0-0-|


  W                   W                   S S S S S S S S S S S S S S S S  
-------------------|-------------------|----------------------------------|
-------------------|-------------------|----------------------------------|
-------------------|-------------------|----------------------------------|
--8----------------|--5----------------|----------------------------------|
--8----------------|--5----------------|--0-0-0---0-0-0-0-0---0-0-0---0-0-|
--8----------------|--5----------------|--0-0-0---0-0-0-0-0---0-0-0---0-0-|


  S S S S S S S S S S S S S S S S    S S S S S S S S H         
----------------------------------|---------------------------|
----------------------------------|---------------------------|
----------------------------------|---------------------------|
----------------------------------|---------------------------|
--0-0-0---0-0-0-0-0---0-0-0---0-0-|--0-0-0-0---0-0------------|
--0-0-0---0-0-0-0-0---0-0-0---0-0-|--0-0-0-0---0-0------------|


  S S S S S S S S S S S S S S S S    S S S S S S S S S S S S S S S S  
----------------------------------|----------------------------------|
----------------------------------|----------------------------------|
----------------------------------|----------------------------------|
----------------------------------|----------------------------------|
--0-0-0-0-0---0-0-0-0---0-0---0-0-|--0-0-0---0-0-0-0---0-0---0-0-0-0-|
--0-0-0-0-0---0-0-0-0---0-0---0-0-|--0-0-0---0-0-0-0---0-0---0-0-0-0-|


  S S S S S S S S S S S S S S S S    S S S S S S S S S S S S S S S S  
----------------------------------|----------------------------------|
----------------------------------|----------------------------------|
----------------------------------|----------------------------------|
----------------------------------|----------------------------------|
--0-0-0-0-0---0-0-0-0---0-0---0-0-|--0-0-0---0-0-0-0---0-0---0-0-0-0-|
--0-0-0-0-0---0-0-0-0---0-0---0-0-|--0-0-0---0-0-0-0---0-0---0-0-0-0-|


  S S S S S S S S S S S S S S S S    S S S S S S S S S S S S S S S S  
----------------------------------|----------------------------------|
----------------------------------|----------------------------------|
----------------------------------|----------------------------------|
----------------------------------|----------------------------------|
--0-0-0-0-0---0-0-0-0---0-0---0-0-|--0-0-0---0-0-0-0---0-0---0-0-0-0-|
--0-0-0-0-0---0-0-0-0---0-0---0-0-|--0-0-0---0-0-0-0---0-0---0-0-0-0-|


  S S S S S S S S S S S S S S S S    S S S S S S S S H         
----------------------------------|---------------------------|
----------------------------------|---------------------------|
----------------------------------|---------------------------|
----------------------------------|---------------------------|
--0-0-0-0-0---0-0-0-0---0-0---0-0-|--0-0-0-0---0-0------------|
--0-0-0-0-0---0-0-0-0---0-0---0-0-|--0-0-0-0---0-0------------|


   E   E   E   E   E   E   E   E      E   E   E   E   S   S   E   E   E   
----------------------------------|--------------------------------------|
----------------------------------|--------------------------------------|
----------------------------------|------------------12h-15p-12----------|
----------14----------15------14--|------14--15------------------15--14--|
------12----------13--------------|--------------------------------------|
--12----------12----------12------|--12----------12----------------------|


  E   E  E  E   E  E   E   E      E   E   E   E   E   E   E   E   
------------------------------|----------------------------------|
------------------------------|----------------------------------|
------------------------------|----------------------12----------|
-----10--------12---------14--|------15------14----------15--14--|
---------8---------8----------|----------------------------------|
--8---------8---------10------|--12------12------12--------------|


   E   E   E   E   E   E   E   E      E   E   E   E   S   S   E   E   E   
----------------------------------|--------------------------------------|
----------------------------------|--------------------------------------|
----------------------------------|------------------12h-15p-12----------|
----------14----------15------14--|------14--15------------------15--14--|
------12----------13--------------|--------------------------------------|
--12----------12----------12------|--12----------12----------------------|


  E   E  E  E   E  E   E   E      E   E   E   E   E   E   E   E   
------------------------------|----------------------------------|
------------------------------|----------------------------------|
------------------------------|----------------------12----------|
-----10--------12---------14--|------15------14----------15--14--|
---------8---------8----------|----------------------------------|
--8---------8---------10------|--12------12------12--------------|


   E   E   E   E   E   E   E   E      E   E   E   E   S   S   E   E   E   
----------------------------------|--------------------------------------|
----------------------------------|--------------------------------------|
----------------------------------|------------------12h-15p-12----------|
----------14----------15------14--|------14--15------------------15--14--|
------12----------13--------------|--------------------------------------|
--12----------12----------12------|--12----------12----------------------|


  E   E  E  E   E  E   E   E      E   E   E   E   E   E   E   E   
------------------------------|----------------------------------|
------------------------------|----------------------------------|
------------------------------|----------------------12----------|
-----10--------12---------14--|------15------14----------15--14--|
---------8---------8----------|----------------------------------|
--8---------8---------10------|--12------12------12--------------|


   E   E   E   E   E   E   E   E      E   E   E   E   S   S   E   E   E   
----------------------------------|--------------------------------------|
----------------------------------|--------------------------------------|
----------------------------------|------------------12h-15p-12----------|
----------14----------15------14--|------14--15------------------15--14--|
------12----------13--------------|--------------------------------------|
--12----------12----------12------|--12----------12----------------------|


  E   E  E  E   E  E   E   E      E   E   E   E   E   E   E   E   
------------------------------|----------------------------------|
------------------------------|----------------------------------|
------------------------------|----------------------12----------|
-----10--------12---------14--|------15------14----------15--14--|
---------8---------8----------|----------------------------------|
--8---------8---------10------|--12------12------12--------------|


  W                   W                   S S S S S S S S S S S S S S S S  
-------------------|-------------------|----------------------------------|
-------------------|-------------------|----------------------------------|
-------------------|-------------------|----------------------------------|
--8----------------|--5----------------|----------------------------------|
--8----------------|--5----------------|--0-0-0---0-0-0-0-0---0-0-0---0-0-|
--8----------------|--5----------------|--0-0-0---0-0-0-0-0---0-0-0---0-0-|


  S S S S S S S S S S S S S S S S    W                   W                 
----------------------------------|-------------------|-------------------|
----------------------------------|-------------------|-------------------|
----------------------------------|-------------------|-------------------|
----------------------------------|--8----------------|--5----------------|
--0-0-0---0-0-0-0-0---0-0-0---0-0-|--8----------------|--5----------------|
--0-0-0---0-0-0-0-0---0-0-0---0-0-|--8----------------|--5----------------|


  S S S S S S S S S S S S S S S S    S S S S S S S S S S S S S S S S  
----------------------------------|----------------------------------|
----------------------------------|----------------------------------|
----------------------------------|----------------------------------|
----------------------------------|----------------------------------|
--0-0-0---0-0-0-0-0---0-0-0---0-0-|--0-0-0---0-0-0-0-0---0-0-0---0-0-|
--0-0-0---0-0-0-0-0---0-0-0---0-0-|--0-0-0---0-0-0-0-0---0-0-0---0-0-|


                              PM   PM PM PM PM   PM       PM PM               
  S S S S S S S S H           Q    E  E  E  Q    E     E  E  E  E  Q    Q     
---------------------------|------------------------|------------------------|
---------------------------|------------------------|------------------------|
---------------------------|------------------------|------------------------|
---------------------------|--0----0--0--0--0----0--|-----0--0-----5----3----|
--0-0-0-0---0-0------------|--0----0--0--0--0----0--|-----0--0-----5----3----|
--0-0-0-0---0-0------------|--0----0--0--0--0----0--|-----0--0-----5----3----|


  PM   PM PM PM PM   PM       PM PM                   PM   PM PM PM PM   PM  
  Q    E  E  E  Q    E     E  E  E  E  E  E  Q        Q    E  E  E  Q    E   
------------------------|--------------------------|------------------------|
------------------------|--------------------------|------------------------|
------------------------|--------------------------|------------------------|
--0----0--0--0--0----0--|-----0--0-----5--5--7\----|--0----0--0--0--0----0--|
--0----0--0--0--0----0--|-----0--0-----5--5--7\----|--0----0--0--0--0----0--|
--0----0--0--0--0----0--|-----0--0-----5--5--7\----|--0----0--0--0--0----0--|


     PM PM                 PM   PM PM PM PM   PM       PM PM                 
  E  E  E  E  Q    Q       Q    E  E  E  Q    E     E  E  E  E  E  E  Q      
------------------------|------------------------|--------------------------|
------------------------|------------------------|--------------------------|
------------------------|------------------------|--------------------------|
-----0--0-----5----3----|--0----0--0--0--0----0--|-----0--0-----5--5--7\----|
-----0--0-----5----3----|--0----0--0--0--0----0--|-----0--0-----5--5--7\----|
-----0--0-----5----3----|--0----0--0--0--0----0--|-----0--0-----5--5--7\----|


                  PM PM PM PM                    PM PM       
  Q    E   E   E  S  E  S  E     E  Q     E   E  S  S  Q     
------------------------------|-----------------------------|
------------------------------|-----------------------------|
------------------------------|------------------------9----|
--0----7S--5S--8--0--0--0--0--|--0--7S----5S--8--0--0--8----|
--0----7S--5S--8--0--0--0--0--|--0--7S----5S--8--0--0--7----|
--0----7S--5S--8--0--0--0--0--|--0--7S----5S--8--0--0-------|


                  PM PM PM PM                    PM PM       
  Q    E   E   E  S  E  S  E     E  Q     E   E  S  S  Q     
------------------------------|-----------------------------|
------------------------------|-----------------------------|
------------------------------|------------------------9----|
--0----7S--5S--8--0--0--0--0--|--0--7S----5S--8--0--0--8----|
--0----7S--5S--8--0--0--0--0--|--0--7S----5S--8--0--0--7----|
--0----7S--5S--8--0--0--0--0--|--0--7S----5S--8--0--0-------|


                  PM PM PM PM                    PM PM       
  Q    E   E   E  S  E  S  E     E  Q     E   E  S  S  Q     
------------------------------|-----------------------------|
------------------------------|-----------------------------|
------------------------------|------------------------9----|
--0----7S--5S--8--0--0--0--0--|--0--7S----5S--8--0--0--8----|
--0----7S--5S--8--0--0--0--0--|--0--7S----5S--8--0--0--7----|
--0----7S--5S--8--0--0--0--0--|--0--7S----5S--8--0--0-------|


                  PM PM PM PM                    PM PM       
  Q    E   E   E  S  E  S  E     E  Q     E   E  S  S  Q     
------------------------------|-----------------------------|
------------------------------|-----------------------------|
------------------------------|------------------------9----|
--0----7S--5S--8--0--0--0--0--|--0--7S----5S--8--0--0--8----|
--0----7S--5S--8--0--0--0--0--|--0--7S----5S--8--0--0--7----|
--0----7S--5S--8--0--0--0--0--|--0--7S----5S--8--0--0-------|


                  PM PM PM PM                    PM PM       
  Q    E   E   E  S  E  S  E     E  Q     E   E  S  S  Q     
------------------------------|-----------------------------|
------------------------------|-----------------------------|
------------------------------|------------------------9----|
--0----7S--5S--8--0--0--0--0--|--0--7S----5S--8--0--0--8----|
--0----7S--5S--8--0--0--0--0--|--0--7S----5S--8--0--0--7----|
--0----7S--5S--8--0--0--0--0--|--0--7S----5S--8--0--0-------|


                  PM PM PM PM                    PM PM       
  Q    E   E   E  S  E  S  E     E  Q     E   E  S  S  Q     
------------------------------|-----------------------------|
------------------------------|-----------------------------|
------------------------------|------------------------9----|
--0----7S--5S--8--0--0--0--0--|--0--7S----5S--8--0--0--8----|
--0----7S--5S--8--0--0--0--0--|--0--7S----5S--8--0--0--7----|
--0----7S--5S--8--0--0--0--0--|--0--7S----5S--8--0--0-------|


  PM   PM PM PM     PM         PM PM PM     PM         PM PM PM     PM  
  Q    E  E  Q.     E     Q    E  E  Q.     E     Q    E  E  Q.     E   
-----------------------|-----------------------|-----------------------|
-----------------------|-----------------------|-----------------------|
-----------------------|-----------------------|-----------------------|
--0----0--0--0------0--|--L----0--0--0------0--|--L----0--0--0------0--|
--0----0--0--0------0--|--L----0--0--0------0--|--L----0--0--0------0--|
--0----0--0--0------0--|--L----0--0--0------0--|--L----0--0--0------0--|


       PM PM PM   PM PM PM    PM   PM PM PM     PM         PM PM PM     PM  
                  |--3--|                                                   
  Q    E  E  Q    E  E  E     Q    E  E  Q.     E     Q    E  E  Q.     E   
---------------------------|-----------------------|-----------------------|
---------------------------|-----------------------|-----------------------|
---------------------------|-----------------------|-----------------------|
--L----0--0--0----0--0--0--|--0----0--0--0------0--|--L----0--0--0------0--|
--L----0--0--0----0--0--0--|--0----0--0--0------0--|--L----0--0--0------0--|
--L----0--0--0----0--0--0--|--0----0--0--0------0--|--L----0--0--0------0--|


       PM PM PM     PM         PM PM PM   PM PM PM    PM                
                                          |--3--|                       
  Q    E  E  Q.     E     Q    E  E  Q    E  E  E     W                 
-----------------------|---------------------------|-------------------|
-----------------------|---------------------------|-------------------|
-----------------------|---------------------------|-------------------|
--L----0--0--0------0--|--L----0--0--0----0--0--0--|--0----------------|
--L----0--0--0------0--|--L----0--0--0----0--0--0--|--0----------------|
--L----0--0--0------0--|--L----0--0--0----0--0--0--|--0----------------|


  W                   W                   W                  
-------------------|-------------------|-------------------||
-------------------|-------------------|-------------------||
-------------------|-------------------|-------------------||
--L----------------|--L----------------|--L----------------||
--L----------------|--L----------------|--L----------------||
--L----------------|--L----------------|--L----------------||



Right Guitar



                             PM PM           PM PM        
     W                   S S S  S  E  E  S S S  S  E  E   
D||-------------------|----------------------------------|
A||-------------------|----------------------------------|
F||-------------------|----------------------------------|
C||-------------------|----------------------------------|
G||-------------------|----------------------------------|
C||-------------------|--0-3-0--0--0--2--0-3-0--0--0--2--|


      PM PM       PM PM PM PM PM PM PM PM        PM PM           PM PM        
  S S S  S  E  E  S  S  S  S  S  S  S  S     S S S  S  E  E  S S S  S  E  E   
------------------------------------------|----------------------------------|
------------------------------------------|----------------------------------|
------------------------------------------|----------------------------------|
------------------------------------------|----------------------------------|
------------------------------------------|----------------------------------|
--0-3-0--0--0--2--7--5--3--0--5--3--2--0--|--0-3-0--0--0--2--0-3-0--0--0--2--|


      PM PM       PM PM PM PM PM PM PM PM        PM PM           PM PM        
  S S S  S  E  E  S  S  S  S  S  S  S  S     S S S  S  E  E  S S S  S  E  E   
------------------------------------------|----------------------------------|
------------------------------------------|----------------------------------|
------------------------------------------|----------------------------------|
------------------------------------------|----------------------------------|
---------------------------------------0--|----------------------------------|
--0-3-0--0--0--2--0--2--3--5--2--3--5-----|--0-3-0--0--0--2--0-3-0--0--0--2--|


      PM PM       PM PM PM PM PM PM PM PM        PM PM           PM PM        
  S S S  S  E  E  S  S  S  S  S  S  S  S     S S S  S  E  E  S S S  S  E  E   
------------------------------------------|----------------------------------|
------------------------------------------|----------------------------------|
------------------------------------------|----------------------------------|
------------------------------------------|----------------------------------|
------------------------------------------|----------------------------------|
--0-3-0--0--0--2--7--5--3--0--5--3--2--0--|--0-3-0--0--0--2--0-3-0--0--0--2--|


      PM PM       PM PM PM PM PM PM PM PM        PM PM                 
  S S S  S  E  E  S  S  S  S  S  S  S  S     S S S  S  E  E  H         
------------------------------------------|---------------------------|
------------------------------------------|---------------------------|
------------------------------------------|---------------------------|
------------------------------------------|---------------------------|
---------------------------------------0--|---------------------------|
--0-3-0--0--0--2--0--2--3--5--2--3--5-----|--0-3-0--0--0--2-----------|


  S S S S S S S S S S S S S S S S    S S S S S S S E  S S S S S S S  
----------------------------------|---------------------------------|
----------------------------------|---------------------------------|
----------------------------------|---------------------------------|
----------------------------------|---------------------------------|
----------------------------------|---------------------------------|
--0-3-0-0-0-2-0-5-0-0-0-0-0-0-0-0-|--0-3-0-0-0-2-0-7--5-3-2-0-3-2-0-|


  S S S S S S S S S S S S S S S S    S S S S S S S E  S S S S S S S  
----------------------------------|---------------------------------|
----------------------------------|---------------------------------|
----------------------------------|---------------------------------|
----------------------------------|---------------------------------|
----------------------------------|---------------------------------|
--0-3-0-0-0-2-0-5-0-0-0-0-0-0-0-0-|--0-3-0-0-0-2-0-8--7-5-3-5-3-2-0-|


  S S S S S S S S S S S S S S S S    S S S S S S S E  S S S S S S S  
----------------------------------|---------------------------------|
----------------------------------|---------------------------------|
----------------------------------|---------------------------------|
----------------------------------|---------------------------------|
----------------------------------|---------------------------------|
--0-3-0-0-0-2-0-5-0-0-0-0-0-0-0-0-|--0-3-0-0-0-2-0-7--5-3-2-0-3-2-0-|


  S S S S S S S S S S S S S S S S    S S S S S S S S E.  E.  E   
----------------------------------|-----------------------------|
----------------------------------|-----------------------------|
----------------------------------|-----------------------------|
----------------------------------|-----------------------------|
----------------------------------|-----------------------------|
--0-3-0-0-0-2-0-5-0-0-0-0-0-0-0-0-|--0-3-0-0-0-2-0-0-8---7---5--|


  P
Добавлено: 25.02.2012
Другие материалы по этой песне:

Страница создана 25.02.2012
http://primanota.ru/drop-dead/drop-dead-chords.htm
Привет, Гость.
Предлагаем пройти революционный курс по гитаре.
Подарок от PrimaNota.Ru, забирай!