PrimaNota.ru - самый крупный в мире бесплатный архив песенных текстов, аккордов, табулатур и нот


Drop Dead - Darker Than Black - таба, бас-таба, драм-таба, видео

Регистрация Запомнить меня
Войти через:  Facebook Google Twitter Vk Yandex Mail.ru

Drop Dead - Darker Than Black - таба, бас-таба, драм-таба, видео

Печатать
Просмотров: 175
Уроки эстрадного вокала в Санкт-Петербурге
Darker Than Black
Drop Dead
Drop Dead
Kwonnie - kwonnie@live.com

Center Guitar



     W                   W                    E  E   E   E  E   E  E   E   
D||-------------------|-------------------|-------------------------------|
A||-------------------|-------------------|-------------------------------|
F||-------------------|-------------------|-------------------------------|
C||-------------------|-------------------|--12--0--10--12--0--15--0--14--|
G||-------------------|-------------------|-------------------------------|
C||-------------------|-------------------|-------------------------------|


   E  E   E  E   E  E   E   E      E  E   E   E  E   E  E   E   
-------------------------------|-------------------------------|
-------------------------------|-------------------------------|
-------------------------------|-------------------------------|
--15--0--17--0--14--0------10--|--12--0--10--12--0--15--0--14--|
-----------------------12------|-------------------------------|
-------------------------------|-------------------------------|


   E  E   E  E   E  E   E   E      E  E   E   E  E   E  E   E   
-------------------------------|-------------------------------|
-------------------------------|-------------------------------|
-------------------------------|-------------------------------|
--15--0--17--0--14--0--12--10--|-------------------------------|
-------------------------------|--12--8--10--12--8--13--8--12--|
-------------------------------|-------------------------------|


  E   E   E  E   E   E  E   E     E  E  E  E  E  E  E  E   
-------------------------------|--------------------------|
-------------------------------|--------------------------|
-------------------------------|--------------------------|
-------------------------------|--5--0--5--3--0--3--2--0--|
--8--10--12--8--13--12--8--12--|--------------------------|
-------------------------------|--------------------------|


  E  E  E  E  E  E  E  E      E  E   E   E  E   E  E   E   
--------------------------|-------------------------------|
--------------------------|-------------------------------|
--------------------------|-------------------------------|
--2--0--2--3--2--0--3--0--|--12--0--10--12--0--15--0--14--|
--------------------------|-------------------------------|
--------------------------|-------------------------------|


   E  E   E  E   E  E   E   E      E  E   E   E  E   E  E   E   
-------------------------------|-------------------------------|
-------------------------------|-------------------------------|
-------------------------------|-------------------------------|
--15--0--17--0--14--0------10--|--12--0--10--12--0--15--0--14--|
-----------------------12------|-------------------------------|
-------------------------------|-------------------------------|


   E  E   E  E   E  E   E   E      E  E   E   E  E   E  E   E   
-------------------------------|-------------------------------|
-------------------------------|-------------------------------|
-------------------------------|-------------------------------|
--15--0--17--0--14--0--12--10--|-------------------------------|
-------------------------------|--12--8--10--12--8--13--8--12--|
-------------------------------|-------------------------------|


  E   E   E  E   E   E  E   E     E  E  E  E  E  E  E  E   
-------------------------------|--------------------------|
-------------------------------|--------------------------|
-------------------------------|--------------------------|
-------------------------------|--5--0--5--3--0--3--2--0--|
--8--10--12--8--13--12--8--12--|--------------------------|
-------------------------------|--------------------------|


  E  E  E  E  E  E  E  E                                                   
--------------------------|-----|-----|-----|-----|-----|-----|-----|-----|
--------------------------|-----|-----|-----|-----|-----|-----|-----|-----|
--------------------------|-----|-----|-----|-----|-----|-----|-----|-----|
--2--0--2--3--2--0--3--0--|-----|-----|-----|-----|-----|-----|-----|-----|
--------------------------|-----|-----|-----|-----|-----|-----|-----|-----|
--------------------------|-----|-----|-----|-----|-----|-----|-----|-----|


-----|-----|-----|-----|-----|-----|-----|-----|-----|-----|-----|-----|
-----|-----|-----|-----|-----|-----|-----|-----|-----|-----|-----|-----|
-----|-----|-----|-----|-----|-----|-----|-----|-----|-----|-----|-----|
-----|-----|-----|-----|-----|-----|-----|-----|-----|-----|-----|-----|
-----|-----|-----|-----|-----|-----|-----|-----|-----|-----|-----|-----|
-----|-----|-----|-----|-----|-----|-----|-----|-----|-----|-----|-----|


  PM PM PM    PM PM    PM    PM    PM                 
  E  E  E  E  E  E  E  E     E  E  E  E  E  E  E  E   
--------------------------|--------------------------|
--------------------------|--------------------------|
--------------------------|--------------------------|
--------------------------|--------------------------|
-----------5--------------|--------------------------|
--0--0--0-----0--0--7--0--|--0--3--0--5--3--2--0--2--|


  PM PM PM    PM PM    PM    PM     PM                 
  E  E  E  E  E  E  E  E     E   E  E  E  E  E  E  E   
--------------------------|---------------------------|
--------------------------|---------------------------|
--------------------------|---------------------------|
--------------------------|---------------------------|
-----------5--------------|---------------------------|
--0--0--0-----0--0--7--0--|--0--10--0--8--7--5--3--5--|


  PM PM PM    PM PM    PM    PM    PM                 
  E  E  E  E  E  E  E  E     E  E  E  E  E  E  E  E   
--------------------------|--------------------------|
--------------------------|--------------------------|
--------------------------|--------------------------|
--------------------------|--------------------------|
-----------5--------------|--------------------------|
--0--0--0-----0--0--7--0--|--0--3--0--5--3--2--0--2--|


  PM PM PM    PM PM    PM    PM     PM                 
  E  E  E  E  E  E  E  E     E   E  E  E  E  E  E  E   
--------------------------|---------------------------|
--------------------------|---------------------------|
--------------------------|---------------------------|
--------------------------|---------------------------|
-----------5--------------|---------------------------|
--0--0--0-----0--0--7--0--|--0--10--0--8--7--5--3--5--|


  PM PM PM    PM PM    PM    PM    PM                 
  E  E  E  E  E  E  E  E     E  E  E  E  E  E  E  E   
--------------------------|--------------------------|
--------------------------|--------------------------|
--------------------------|--------------------------|
--------------------------|--------------------------|
-----------5--------------|--------------------------|
--0--0--0-----0--0--7--0--|--0--3--0--5--3--2--0--2--|


  PM PM PM    PM PM    PM    PM     PM                 
  E  E  E  E  E  E  E  E     E   E  E  E  E  E  E  E   
--------------------------|---------------------------|
--------------------------|---------------------------|
--------------------------|---------------------------|
--------------------------|---------------------------|
-----------5--------------|---------------------------|
--0--0--0-----0--0--7--0--|--0--10--0--8--7--5--3--5--|


  PM PM PM    PM PM    PM    PM    PM                 
  E  E  E  E  E  E  E  E     E  E  E  E  E  E  E  E   
--------------------------|--------------------------|
--------------------------|--------------------------|
--------------------------|--------------------------|
--------------------------|--------------------------|
-----------5--------------|--------------------------|
--0--0--0-----0--0--7--0--|--0--3--0--5--3--2--0--2--|


  PM PM PM    PM PM    PM    PM     PM                                     
  E  E  E  E  E  E  E  E     E   E  E  E  E  E  E  E     W                 
--------------------------|---------------------------|-------------------|
--------------------------|---------------------------|-------------------|
--------------------------|---------------------------|-------------------|
--------------------------|---------------------------|-------------------|
-----------5--------------|---------------------------|-------------------|
--0--0--0-----0--0--7--0--|--0--10--0--8--7--5--3--5--|-------------------|


  W                   W                   W                   W                 
-------------------|-------------------|-------------------|-------------------|
-------------------|-------------------|-------------------|-------------------|
-------------------|-------------------|-------------------|-------------------|
-------------------|-------------------|-------------------|-------------------|
-------------------|-------------------|-------------------|-------------------|
-------------------|-------------------|-------------------|-------------------|


  W                   W                   W                   W                 
-------------------|-------------------|-------------------|-------------------|
-------------------|-------------------|-------------------|-------------------|
-------------------|-------------------|-------------------|-------------------|
-------------------|-------------------|-------------------|-------------------|
-------------------|-------------------|-------------------|-------------------|
-------------------|-------------------|-------------------|-------------------|


  W                   W                   W                   W                 
-------------------|-------------------|-------------------|-------------------|
-------------------|-------------------|-------------------|-------------------|
-------------------|-------------------|-------------------|-------------------|
-------------------|-------------------|-------------------|-------------------|
-------------------|-------------------|-------------------|-------------------|
-------------------|-------------------|-------------------|-------------------|


  W                   W                   W                   W                 
-------------------|-------------------|-------------------|-------------------|
-------------------|-------------------|-------------------|-------------------|
-------------------|-------------------|-------------------|-------------------|
-------------------|-------------------|-------------------|--8----------------|
-------------------|-------------------|-------------------|--8----------------|
-------------------|-------------------|-------------------|--8----------------|


   E   E   E   E   H            W                   E  E  E  E  E  E  E  E   
-----------------------------|-------------------|--------------------------|
--10--11--10------10~--------|-------------------|--5--6--5--3--5--3--1--3--|
--------------12-------------|-------------------|--------------------------|
-----------------------------|--3----------------|--------------------------|
-----------------------------|--3----------------|--------------------------|
-----------------------------|--3----------------|--------------------------|


  E  E  E  E  E  E  E  E     E  E  E  E  E  E  E  E   
--------------------------|--------------------------|
--------------------------|--------------------------|
--------------------------|--------------------------|
--------------------------|--------------------------|
--0--0--0--0-----0--0--0--|-----0-----0--0--0-----0--|
--0--0--0--0-----0--0--0--|-----0-----0--0--0-----0--|


  E  E  E  E  E  E  E  E     E  E  E  E  E  E  E  E     W                 
--------------------------|--------------------------|-------------------|
--------------------------|--------------------------|-------------------|
--------------------------|--------------------------|-------------------|
--------------------------|--------------------------|--8----------------|
--0--0--0--0-----0--0--0--|-----0-----0--0--0-----0--|--8----------------|
--0--0--0--0-----0--0--0--|-----0-----0--0--0-----0--|--8----------------|


   E   E   E   E   H            W                   E  E  E  E  E  E  E  E   
-----------------------------|-------------------|--------------------------|
--10--11--10------10~--------|-------------------|--5--6--5--3--5--3--1--3--|
--------------12-------------|-------------------|--------------------------|
-----------------------------|--3----------------|--------------------------|
-----------------------------|--3----------------|--------------------------|
-----------------------------|--3----------------|--------------------------|


  E  E  E  E  E  E  E  E     E  E  E  E  E  E  E  E   
--------------------------|--------------------------|
--------------------------|--------------------------|
--------------------------|--------------------------|
--------------------------|--------------------------|
--0--0--0--0-----0--0--0--|-----0-----0--0--0-----0--|
--0--0--0--0-----0--0--0--|-----0-----0--0--0-----0--|


  E  E  E  E  E  E  E  E     E  E  E  E  E  E  E  E   
--------------------------|--------------------------|
--------------------------|--------------------------|
--------------------------|--------------------------|
--------------------------|--------------------------|
--0--0--0--0-----0--0--0--|-----0-----0--0--0-----0--|
--0--0--0--0-----0--0--0--|-----0-----0--0--0-----0--|


   E  E   E   E  E   E  E   E      E  E   E  E   E  E   E   E   
-------------------------------|-------------------------------|
-------------------------------|-------------------------------|
-------------------------------|-------------------------------|
--12--0--10--12--0--15--0--14--|--15--0--17--0--14--0------10--|
-------------------------------|-----------------------12------|
-------------------------------|-------------------------------|


   E  E   E   E  E   E  E   E      E  E   E  E   E  E   E   E   
-------------------------------|-------------------------------|
-------------------------------|-------------------------------|
-------------------------------|-------------------------------|
--12--0--10--12--0--15--0--14--|--15--0--17--0--14--0--12--10--|
-------------------------------|-------------------------------|
-------------------------------|-------------------------------|


   E  E   E   E  E   E  E   E     E   E   E  E   E   E  E   E   
-------------------------------|-------------------------------|
-------------------------------|-------------------------------|
-------------------------------|-------------------------------|
-------------------------------|-------------------------------|
--12--8--10--12--8--13--8--12--|--8--10--12--8--13--12--8--12--|
-------------------------------|-------------------------------|


  E  E  E  E  E  E  E  E     E  E  E  E  E  E  E  E   
--------------------------|--------------------------|
--------------------------|--------------------------|
--------------------------|--------------------------|
--5--0--5--3--0--3--2--0--|--2--0--2--3--2--0--3--0--|
--------------------------|--------------------------|
--------------------------|--------------------------|


   E  E   E   E  E   E  E   E      E  E   E  E   E  E   E   E   
-------------------------------|-------------------------------|
-------------------------------|-------------------------------|
-------------------------------|-------------------------------|
--12--0--10--12--0--15--0--14--|--15--0--17--0--14--0------10--|
-------------------------------|-----------------------12------|
-------------------------------|-------------------------------|


   E  E   E   E  E   E  E   E      E  E   E  E   E  E   E   E   
-------------------------------|-------------------------------|
-------------------------------|-------------------------------|
-------------------------------|-------------------------------|
--12--0--10--12--0--15--0--14--|--15--0--17--0--14--0--12--10--|
-------------------------------|-------------------------------|
-------------------------------|-------------------------------|


   E  E   E   E  E   E  E   E     E   E   E  E   E   E  E   E   
-------------------------------|-------------------------------|
-------------------------------|-------------------------------|
-------------------------------|-------------------------------|
-------------------------------|-------------------------------|
--12--8--10--12--8--13--8--12--|--8--10--12--8--13--12--8--12--|
-------------------------------|-------------------------------|


  E  E  E  E  E  E  E  E     E  E  E  E  E  E  E  E   
--------------------------|--------------------------|
--------------------------|--------------------------|
--------------------------|--------------------------|
--5--0--5--3--0--3--2--0--|--2--0--2--3--2--0--3--0--|
--------------------------|--------------------------|
--------------------------|--------------------------|


  PM PM PM    PM PM    PM    PM    PM                 
  E  E  E  E  E  E  E  E     E  E  E  E  E  E  E  E   
--------------------------|--------------------------|
--------------------------|--------------------------|
--------------------------|--------------------------|
--------------------------|--------------------------|
-----------5--------------|--------------------------|
--0--0--0-----0--0--7--0--|--0--3--0--5--3--2--0--2--|


  PM PM PM    PM PM    PM    PM     PM                 
  E  E  E  E  E  E  E  E     E   E  E  E  E  E  E  E   
--------------------------|---------------------------|
--------------------------|---------------------------|
--------------------------|---------------------------|
--------------------------|---------------------------|
-----------5--------------|---------------------------|
--0--0--0-----0--0--7--0--|--0--10--0--8--7--5--3--5--|


  PM PM PM    PM PM    PM    PM    PM                 
  E  E  E  E  E  E  E  E     E  E  E  E  E  E  E  E   
--------------------------|--------------------------|
--------------------------|--------------------------|
--------------------------|--------------------------|
--------------------------|--------------------------|
-----------5--------------|--------------------------|
--0--0--0-----0--0--7--0--|--0--3--0--5--3--2--0--2--|


  PM PM PM    PM PM    PM    PM     PM                                     
  E  E  E  E  E  E  E  E     E   E  E  E  E  E  E  E     W                 
--------------------------|---------------------------|-------------------|
--------------------------|---------------------------|-------------------|
--------------------------|---------------------------|-------------------|
--------------------------|---------------------------|-------------------|
-----------5--------------|---------------------------|-------------------|
--0--0--0-----0--0--7--0--|--0--10--0--8--7--5--3--5--|-------------------|


  W                   W                   W                   W                 
-------------------|-------------------|-------------------|-------------------|
-------------------|-------------------|-------------------|-------------------|
-------------------|-------------------|-------------------|-------------------|
-------------------|-------------------|-------------------|-------------------|
-------------------|-------------------|-------------------|-------------------|
-------------------|-------------------|-------------------|-------------------|


  W                   W                   W                   W                 
-------------------|-------------------|-------------------|-------------------|
-------------------|-------------------|-------------------|-------------------|
-------------------|-------------------|-------------------|-------------------|
-------------------|-------------------|-------------------|-------------------|
-------------------|-------------------|-------------------|-------------------|
-------------------|-------------------|-------------------|-------------------|


  W                   W                   W                   W                 
-------------------|-------------------|-------------------|-------------------|
-------------------|-------------------|-------------------|-------------------|
-------------------|-------------------|-------------------|-------------------|
-------------------|-------------------|-------------------|-------------------|
-------------------|-------------------|-------------------|-------------------|
-------------------|-------------------|-------------------|-------------------|


  W                   W                   W                   W                 
-------------------|-------------------|-------------------|-------------------|
-------------------|-------------------|-------------------|-------------------|
-------------------|-------------------|-------------------|-------------------|
-------------------|-------------------|-------------------|--8----------------|
-------------------|-------------------|-------------------|--8----------------|
-------------------|-------------------|-------------------|--8----------------|


   E   E   E   E   H            W                   E  E  E  E  E  E  E  E   
-----------------------------|-------------------|--------------------------|
--10--11--10------10~--------|-------------------|--5--6--5--3--5--3--1--3--|
--------------12-------------|-------------------|--------------------------|
-----------------------------|--3----------------|--------------------------|
-----------------------------|--3----------------|--------------------------|
-----------------------------|--3----------------|--------------------------|


  E  E  E  E  E  E  E  E     E  E  E  E  E  E  E  E   
--------------------------|--------------------------|
--------------------------|--------------------------|
--------------------------|--------------------------|
--------------------------|--------------------------|
--0--0--0--0-----0--0--0--|-----0-----0--0--0-----0--|
--0--0--0--0-----0--0--0--|-----0-----0--0--0-----0--|


  E  E  E  E  E  E  E  E     E  E  E  E  E  E  E  E     W                 
--------------------------|--------------------------|-------------------|
--------------------------|--------------------------|-------------------|
--------------------------|--------------------------|-------------------|
--------------------------|--------------------------|--8----------------|
--0--0--0--0-----0--0--0--|-----0-----0--0--0-----0--|--8----------------|
--0--0--0--0-----0--0--0--|-----0-----0--0--0-----0--|--8----------------|


   E   E   E   E   H            W                   E  E  E  E  E  E  E  E   
-----------------------------|-------------------|--------------------------|
--10--11--10------10~--------|-------------------|--5--6--5--3--5--3--1--3--|
--------------12-------------|-------------------|--------------------------|
-----------------------------|--3----------------|--------------------------|
-----------------------------|--3----------------|--------------------------|
-----------------------------|--3----------------|--------------------------|


  E  E  E  E  E  E  E  E     E  E  E  E  E  E  E  E   
--------------------------|--------------------------|
--------------------------|--------------------------|
--------------------------|--------------------------|
--------------------------|--------------------------|
--0--0--0--0-----0--0--0--|-----0-----0--0--0-----0--|
--0--0--0--0-----0--0--0--|-----0-----0--0--0-----0--|


  E  E  E  E  E  E  E  E     E  E  E  E  E  E  E  E     W                 
--------------------------|--------------------------|-------------------|
--------------------------|--------------------------|-------------------|
--------------------------|--------------------------|-------------------|
--------------------------|--------------------------|-------------------|
--0--0--0--0-----0--0--0--|-----0-----0--0--0-----0--|-------------------|
--0--0--0--0-----0--0--0--|-----0-----0--0--0-----0--|-------------------|


  W                   W                   W                   W                 
-------------------|-------------------|-------------------|-------------------|
-------------------|-------------------|-------------------|-------------------|
-------------------|-------------------|-------------------|-------------------|
-------------------|-------------------|-------------------|-------------------|
-------------------|-------------------|-------------------|-------------------|
-------------------|-------------------|-------------------|-------------------|


  W                   W                   W                   W                 
-------------------|-------------------|-------------------|-------------------|
-------------------|-------------------|-------------------|-------------------|
-------------------|-------------------|-------------------|-------------------|
-------------------|-------------------|-------------------|-------------------|
-------------------|-------------------|-------------------|-------------------|
-------------------|-------------------|-------------------|-------------------|


  W                   W                   W                   W                 
-------------------|-------------------|-------------------|-------------------|
-------------------|-------------------|-------------------|-------------------|
-------------------|-------------------|-------------------|-------------------|
-------------------|-------------------|-------------------|-------------------|
-------------------|-------------------|-------------------|-------------------|
-------------------|-------------------|-------------------|-------------------|


  W                   W                   W                   W                 
-------------------|-------------------|-------------------|-------------------|
-------------------|-------------------|-------------------|-------------------|
-------------------|-------------------|-------------------|-------------------|
-------------------|-------------------|-------------------|-------------------|
-------------------|-------------------|-------------------|-------------------|
-------------------|-------------------|-------------------|-------------------|


  W                   W                   W                 
-------------------|-------------------|-------------------|
-------------------|-------------------|-------------------|
-------------------|-------------------|-------------------|
-------------------|-------------------|-------------------|
-------------------|-------------------|-------------------|
-------------------|-------------------|-------------------|


  Q    S  S  E  Q    E  E     Q    E  E  E  E  E  E     Q    E  Q    E  Q     
--5----5h-6p-5-------------|-------------------------|--5----5--6------------|
----------------8----6--5--|--L-------------5--6-----|---------------5--6----|
---------------------------|-------------5--------7--|-----------------------|
---------------------------|-------7--8--------------|-----------------------|
---------------------------|-------------------------|-----------------------|
---------------------------|-------------------------|-----------------------|


  Q    Q    Q    Q       Q    E  E  Q    E  E     Q    H        Q     
----------------------|--6----5----------------|---------------------|
-------5----6----8----|----------8--6-------5--|--L------------------|
--7-------------------|------------------7-----|-------7--------5----|
----------------------|------------------------|---------------------|
----------------------|------------------------|---------------------|
----------------------|------------------------|---------------------|


  Q    E  Q    E  Q       E  Q    E  Q    Q       S S S S S S E  E   E  E  E   
-----------------------|-----------------------|--8-6-5-----------------------|
-----------------------|-------------5----6----|--------8-6-5-6--8b--6-----6--|
-----------------------|-----5----7------------|------------------------5-----|
---------------5--7----|--8--------------------|------------------------------|
--5----7--8------------|-----------------------|------------------------------|
-----------------------|-----------------------|------------------------------|


  E  E  E   E  E  E  E  E      Q     E   Q     E   Q     
--------6b-----------6--5--|--12--------13--------------|
--8--6------6-----8--------|--------15--------13--15----|
---------------5-----------|----------------------------|
---------------------------|----------------------------|
---------------------------|----------------------------|
---------------------------|----------------------------|


  Q     E   Q     Q     E      E   S   S   E   E   E   E   E   E   
---------------------------|--------------------------------------|
--L----13------------------|--------------------------------------|
-----------15----14----12--|--17--15h-17p-15--14--17--15----------|
---------------------------|------------------------------15--17--|
---------------------------|--------------------------------------|
---------------------------|--------------------------------------|


   E   E   E   E   E   E   E   E      Q     E   Q     E   Q     
--------------------------17--15--|--20----18--22----17--18----|
--------------17--15--------------|----------------------------|
--14--15--17----------17----------|----------------------------|
----------------------------------|----------------------------|
----------------------------------|----------------------------|
----------------------------------|----------------------------|


   E   Q     E   Q     Q     
--15--17----13--15----12----|
----------------------------|
----------------------------|
----------------------------|
----------------------------|
----------------------------|


   T             T             T             T             
   |----3----|   |----3----|   |----3----|   |----3----|   
   E    E    E   E    E    E   E    E    E   E    E    E   
--20p--13p--10--18p--13p--10--17p--13p--10--15p--13p--10--|
----------------------------------------------------------|
----------------------------------------------------------|
----------------------------------------------------------|
----------------------------------------------------------|
----------------------------------------------------------|


   E   E   E    E   E   E   E   E      E   E   E   E   E   E   E   E   
--13---x--13b--10---x--15--13---x--|--18--17---x--17--15---x--15--13--|
-----------------------------------|----------------------------------|
-----------------------------------|----------------------------------|
-----------------------------------|----------------------------------|
-----------------------------------|----------------------------------|
-----------------------------------|----------------------------------|


   E   E   S  S  S  S  E   S  S  S  S  E      E   E   E   E   E   E   E   E   
---x------17-17-17-17-----17-17-17-17-----|--18------17--15------15----------|
------15--------------15--------------15--|------15----------15------18--15--|
------------------------------------------|----------------------------------|
------------------------------------------|----------------------------------|
------------------------------------------|----------------------------------|
------------------------------------------|----------------------------------|


          PM         PM          
   E   E  E   E   E  E   E   E   
------------------------17--15--|
--17--15-----15--17-------------|
----------0----------0----------|
--------------------------------|
--------------------------------|
--------------------------------|


   S  S  S  S  S  S  S  S  S  S  S  S  S  S  S  S  
--18-17-15----17-15-------15----------------------|
-----------18-------18-17----18-17-15-18-17-15----|
-----------------------------------------------17-|
--------------------------------------------------|
--------------------------------------------------|
--------------------------------------------------|


   S  S  S  S  S  S  S  S  S  S  S  S  S  S  S  S     Q     E   Q     E   Q     
--------------------------------------------------|----------------------------|
--17-15-------15----------------------------------|----------------------------|
--------17-15----17-15-14-17-15-14----15-14-------|----------------------------|
-----------------------------------17-------17-15-|--14----12--15----10--12----|
--------------------------------------------------|----------------------------|
--------------------------------------------------|----------------------------|


  Q     Q     E   Q     E     S S S S  S  S S S S S  S  S S S S S  
---------------------------|--------------------------------------|
---------------------------|--------------------------------------|
---------------------------|--------------------------------------|
--L----14----12--15----10--|------------------------------7-7-8-8-|
---------------------------|----------------7-7-8-8-10-10---------|
---------------------------|--7-7-8-8-10-10-----------------------|


   S  S S S S S  S  S S S  S  S  S  S S S  
--------------------------------------8-8-|
----------------------8-8-10-10-11-11-----|
--------7-7-9-9-10-10---------------------|
--10-10-----------------------------------|
------------------------------------------|
------------------------------------------|


   S S S S  S S S S  S S S S  S S S S     S S S S  S S S S  S S S S  S S S S  
--15-0-0-0-17-0-0-0-13-0-0-0-12-0-0-0-|--20-0-0-0-18-0-0-0-17-0-0-0-15-0-0-0-|
--------------------------------------|--------------------------------------|
--------------------------------------|--------------------------------------|
--------------------------------------|--------------------------------------|
--------------------------------------|--------------------------------------|
--------------------------------------|--------------------------------------|


   S  S  S  S  S  S  S  S  S  S  S  S  S  S  S  S  
--22-22-22-22-20-20-20-20-17-17-17-17-18-18-18-18-|
--------------------------------------------------|
--------------------------------------------------|
--------------------------------------------------|
--------------------------------------------------|
--------------------------------------------------|


   S  S  S  S  S  S  S  S  S  S  S  S  S  S  S  S     W                 
--20-20-20-20-17-17-17-17-15-15-15-15-13-13-13-13-|--10----------------|
--------------------------------------------------|--------------------|
--------------------------------------------------|--------------------|
--------------------------------------------------|--------------------|
--------------------------------------------------|--------------------|
--------------------------------------------------|--------------------|


  W                   W                   W                 
--L----------------|--L----------------|--L----------------|
-------------------|-------------------|-------------------|
-------------------|-------------------|-------------------|
-------------------|-------------------|-------------------|
-------------------|-------------------|-------------------|
-------------------|-------------------|-------------------|


   E  E   E   E  E   E  E   E      E  E   E  E   E  E   E   E   
-------------------------------|-------------------------------|
-------------------------------|-------------------------------|
-------------------------------|-------------------------------|
--12--0--10--12--0--15--0--14--|--15--0--17--0--14--0------10--|
-------------------------------|-----------------------12------|
-------------------------------|-------------------------------|


   E  E   E   E  E   E  E   E      E  E   E  E   E  E   E   E   
-------------------------------|-------------------------------|
-------------------------------|-------------------------------|
-------------------------------|-------------------------------|
--12--0--10--12--0--15--0--14--|--15--0--17--0--14--0--12--10--|
-------------------------------|-------------------------------|
-------------------------------|-------------------------------|


   E  E   E   E  E   E  E   E     E   E   E  E   E   E  E   E   
-------------------------------|-------------------------------|
-------------------------------|-------------------------------|
-------------------------------|-------------------------------|
-------------------------------|-------------------------------|
--12--8--10--12--8--13--8--12--|--8--10--12--8--13--12--8--12--|
-------------------------------|-------------------------------|


  E  E  E  E  E  E  E  E     E  E  E  E  E  E  E  E   
--------------------------|--------------------------|
--------------------------|--------------------------|
--------------------------|--------------------------|
--5--0--5--3--0--3--2--0--|--2--0--2--3--2--0--3--0--|
--------------------------|--------------------------|
--------------------------|--------------------------|


   E  E   E   E  E   E  E   E      E  E   E  E   E  E   E   E   
-------------------------------|-------------------------------|
-------------------------------|-------------------------------|
-------------------------------|-------------------------------|
--12--0--10--12--0--15--0--14--|--15--0--17--0--14--0------10--|
-------------------------------|-----------------------12------|
-------------------------------|-------------------------------|


   E  E   E   E  E   E  E   E      E  E   E  E   E  E   E   E   
-------------------------------|-------------------------------|
-------------------------------|-------------------------------|
-------------------------------|-------------------------------|
--12--0--10--12--0--15--0--14--|--15--0--17--0--14--0--12--10--|
-------------------------------|-------------------------------|
-------------------------------|-------------------------------|


   E  E   E   E  E   E  E   E     E   E   E  E   E   E  E   E   
-------------------------------|-------------------------------|
-------------------------------|-------------------------------|
-------------------------------|-------------------------------|
-------------------------------|-------------------------------|
--12--8--10--12--8--13--8--12--|--8--10--12--8--13--12--8--12--|
-------------------------------|-------------------------------|


  E  E  E  E  E  E  E  E     E  E  E  E  E  E  E  E    
--------------------------|--------------------------||
--------------------------|--------------------------||
--------------------------|--------------------------||
--5--0--5--3--0--3--2--0--|--2--0--2--3--2--0--3--0--||
--------------------------|--------------------------||
--------------------------|--------------------------||



Left Guitar



     W                   W                   E  E  E  E  Q    E  E   
D||-------------------|-------------------|-------------------------|
A||-------------------|-------------------|-------------------------|
F||-------------------|-------------------|-------------------------|
C||-------------------|-------------------|-------------------------|
G||-------------------|-------------------|--0--0--0--0-------0--0--|
C||-------------------|-------------------|--0--0--0--0-------0--0--|


  E  E  H.              E  E  E  E  Q    E  E     E  E  H.            
---------------------|-------------------------|---------------------|
---------------------|-------------------------|---------------------|
---------------------|-------------------------|---------------------|
---------------------|-------------------------|---------------------|
--0--0---------------|--0--0--0--0-------0--0--|--0--0---------------|
--0--0---------------|--0--0--0--0-------0--0--|--0--0---------------|


  E  E  E  E  Q    E  E     E  E  H.              E  E  E  E  Q    E  E   
-------------------------|---------------------|-------------------------|
-------------------------|---------------------|-------------------------|
-------------------------|---------------------|-------------------------|
-------------------------|---------------------|-------------------------|
--5--5--5--5-------5--5--|--5--5---------------|--0--0--0--0-------3--3--|
--5--5--5--5-------5--5--|--5--5---------------|--0--0--0--0-------3--3--|


  E  E  H.              E  E  E  E  Q    E  E     E  E  H.            
---------------------|-------------------------|---------------------|
---------------------|-------------------------|---------------------|
---------------------|-------------------------|---------------------|
---------------------|-------------------------|---------------------|
--3--3---------------|--0--0--0--0-------0--0--|--0--0---------------|
--3--3---------------|--0--0--0--0-------0--0--|--0--0---------------|


  E  E  E  E  Q    E  E     E  E  H.              E  E  E  E  Q    E  E   
-------------------------|---------------------|-------------------------|
-------------------------|---------------------|-------------------------|
-------------------------|---------------------|-------------------------|
-------------------------|---------------------|-------------------------|
--0--0--0--0-------0--0--|--0--0---------------|--5--5--5--5-------5--5--|
--0--0--0--0-------0--0--|--0--0---------------|--5--5--5--5-------5--5--|


  E  E  H.              E  E  E  E  Q    E  E     E  E  H.            
---------------------|-------------------------|---------------------|
---------------------|-------------------------|---------------------|
---------------------|-------------------------|---------------------|
---------------------|-------------------------|---------------------|
--5--5---------------|--0--0--0--0-------3--3--|--3--3---------------|
--5--5---------------|--0--0--0--0-------3--3--|--3--3---------------|


  E  E  E  E  E  E  E  E     E  E  E  E  E  E  E  E   
--------------------------|--------------------------|
--------------------------|--------------------------|
--------------------------|--------------------------|
--------------------------|--------------------------|
--0--0--0--0-----0--0--0--|-----0-----0--0--0-----0--|
--0--0--0--0-----0--0--0--|-----0-----0--0--0-----0--|


  E  E  E  E  E  E  E  E     E  E  E  E  E  E  E  E   
--------------------------|--------------------------|
--------------------------|--------------------------|
--------------------------|--------------------------|
--------------------------|--------------------------|
--0--0--0--0-----0--0--0--|-----0-----0--0--0-----0--|
--0--0--0--0-----0--0--0--|-----0-----0--0--0-----0--|


  E  E  E  E  E  E  E  E     E  E  E  E  E  E  E  E   
--------------------------|--------------------------|
--------------------------|--------------------------|
--------------------------|--------------------------|
--------------------------|--------------------------|
--0--0--0--0-----0--0--0--|-----0-----0--0--0-----0--|
--0--0--0--0-----0--0--0--|-----0-----0--0--0-----0--|


  E  E  E  E  E  E  E  E     E  E  E  E  E  E  E  E   
--------------------------|--------------------------|
--------------------------|--------------------------|
--------------------------|--------------------------|
--------------------------|--------------------------|
--0--0--0--0-----0--0--0--|-----0-----0--0--0-----0--|
--0--0--0--0-----0--0--0--|-----0-----0--0--0-----0--|


  E  E  E  E  E  E  E  E     E  E  E  E  E  E  E  E   
--------------------------|--------------------------|
--------------------------|--------------------------|
--------------------------|--------------------------|
--------------------------|--------------------------|
--0--0--0--0-----0--0--0--|-----0-----0--0--0-----0--|
--0--0--0--0-----0--0--0--|-----0-----0--0--0-----0--|


  E  E  E  E  E  E  E  E     E  E  E  E  E  E  E  E   
--------------------------|--------------------------|
--------------------------|--------------------------|
--------------------------|--------------------------|
--------------------------|--------------------------|
--0--0--0--0-----0--0--0--|-----0-----0--0--0-----0--|
--0--0--0--0-----0--0--0--|-----0-----0--0--0-----0--|


  E  E  E  E  E  E  E  E     E  E  E  E  E  E  E  E   
--------------------------|--------------------------|
--------------------------|--------------------------|
--------------------------|--------------------------|
--------------------------|--------------------------|
--0--0--0--0-----0--0--0--|-----0-----0--0--0-----0--|
--0--0--0--0-----0--0--0--|-----0-----0--0--0-----0--|


  E  E  E  E  E  E  E  E     E  E  E  E  E  E  E  E     W                 
--------------------------|--------------------------|-------------------|
--------------------------|--------------------------|-------------------|
--------------------------|--------------------------|-------------------|
--------------------------|--------------------------|--0----------------|
--0--0--0--0-----0--0--0--|-----0-----0--0--0-----0--|--0----------------|
--0--0--0--0-----0--0--0--|-----0-----0--0--0-----0--|--0----------------|


                                          ^                 
  W                   W                   W                 
-------------------|-------------------|-------------------|
-------------------|-------------------|--3----------------|
-------------------|-------------------|--2----------------|
--L----------------|--L----------------|--0----------------|
--L----------------|--L----------------|--0----------------|
--L----------------|--L----------------|--0----------------|


  PM PM PM    PM PM    PM    PM    PM                 
  E  E  E  E  E  E  E  E     E  E  E  E  E  E  E  E   
--------------------------|--------------------------|
--------------------------|--------------------------|
-----------7--------------|--------------------------|
--------------------7-----|-----------5--------------|
--------------------------|-----8--------8--7--5--7--|
--0--0--0-----0--0-----0--|--0-----0-----------------|


  PM PM PM    PM PM    PM    PM    PM                 
  E  E  E  E  E  E  E  E     E  E  E  E  E  E  E  E   
--------------------------|--------------------------|
--------------------------|--------------------------|
-----------7--------------|-----5--------------------|
--------------------7-----|-----------8--7--5-----5--|
--------------------------|--------------------8-----|
--0--0--0-----0--0-----0--|--0-----0-----------------|


  PM PM PM    PM PM    PM    PM    PM                 
  E  E  E  E  E  E  E  E     E  E  E  E  E  E  E  E   
--------------------------|--------------------------|
--------------------------|--------------------------|
-----------7--------------|--------------------------|
--------------------7-----|-----------5--------------|
--------------------------|-----8--------8--7--5--7--|
--0--0--0-----0--0-----0--|--0-----0-----------------|


  PM PM PM    PM PM    PM    PM    PM                 
  E  E  E  E  E  E  E  E     E  E  E  E  E  E  E  E   
--------------------------|--------------------------|
--------------------------|--------------------------|
-----------7--------------|-----5--------------------|
--------------------7-----|-----------8--7--5-----5--|
--------------------------|--------------------8-----|
--0--0--0-----0--0-----0--|--0-----0-----------------|


  PM PM PM    PM PM    PM    PM    PM                 
  E  E  E  E  E  E  E  E     E  E  E  E  E  E  E  E   
--------------------------|--------------------------|
--------------------------|--------------------------|
-----------7--------------|--------------------------|
--------------------7-----|-----------5--------------|
--------------------------|-----8--------8--7--5--7--|
--0--0--0-----0--0-----0--|--0-----0-----------------|


  PM PM PM    PM PM    PM    PM    PM                 
  E  E  E  E  E  E  E  E     E  E  E  E  E  E  E  E   
--------------------------|--------------------------|
--------------------------|--------------------------|
-----------7--------------|-----5--------------------|
--------------------7-----|-----------8--7--5-----5--|
--------------------------|--------------------8-----|
--0--0--0-----0--0-----0--|--0-----0-----------------|


  PM PM PM    PM PM    PM    PM    PM                 
  E  E  E  E  E  E  E  E     E  E  E  E  E  E  E  E   
--------------------------|--------------------------|
--------------------------|--------------------------|
-----------7--------------|--------------------------|
--------------------7-----|-----------5--------------|
--------------------------|-----8--------8--7--5--7--|
--0--0--0-----0--0-----0--|--0-----0-----------------|


  PM PM PM    PM PM    PM    PM    PM                            PM PM       
  E  E  E  E  E  E  E  E     E  E  E  E  E  E  E  E     H        E  E  Q     
--------------------------|--------------------------|----------------------|
--------------------------|--------------------------|----------------------|
-----------7--------------|-----5--------------------|----------------------|
--------------------7-----|-----------8--7--5-----5--|--3--------------5----|
--------------------------|--------------------8-----|--3--------------5----|
--0--0--0-----0--0-----0--|--0-----0-----------------|--3--------3--3-------|


  PM PM      PM PM                  PM PM PM PM                             
  E  E  Q    E  E  Q       H        E  E  E  E     E  E  E  E  E  E  E  E   
------------------------|-----------------------|--------------------------|
------------------------|-----------------------|--------------------------|
------------------------|-----------------------|--------------------------|
--------7----------3----|--2--------------------|--7--5--------5-----------|
--------7----------3----|--2--------------------|--------8--7-----8--7--5--|
--3--3-------3--3-------|--2--------2--2--2--2--|--------------------------|


           PM PM         PM PM      PM PM                  PM PM PM PM  
  H        E  E  Q       E  E  Q    E  E  Q       H        E  E  E  E   
----------------------|------------------------|-----------------------|
----------------------|------------------------|-----------------------|
----------------------|------------------------|-----------------------|
--3--------------5----|--------7----------3----|--2--------------------|
--3--------------5----|--------7----------3----|--2--------------------|
--3--------3--3-------|--3--3-------3--3-------|--2--------2--2--2--2--|


                             PM PM PM PM PM PM PM PM  
  E  E  E  E  E  E  E  E     E  E  E  E  E  E  E  E   
--------------------------|--------------------------|
--------------------------|--------------------------|
--------------------------|--------------------------|
--7--5--------5-----------|--------------------------|
--------8--7-----8--7--5--|--0--0--0--0--0--0--0--0--|
--------------------------|--0--0--0--0--0--0--0--0--|


  PM PM PM PM                      PM PM PM PM PM PM PM PM  
               |---3---|                                    
  E  E  E  E   E   E   E   Q       E  E  E  E  E  E  E  E   
--------------------------------|--------------------------|
--------------------------------|--------------------------|
--------------------------------|--------------------------|
--------------12--10------10----|--------------------------|
--0--0--0--0----------12--10----|--0--0--0--0--0--0--0--0--|
--0--0--0--0--------------10----|--0--0--0--0--0--0--0--0--|


  PM PM PM PM                      PM PM PM PM PM PM PM PM  
               |---3---|                                    
  E  E  E  E   E   E   E   Q       E  E  E  E  E  E  E  E   
--------------------------------|--------------------------|
--------------------------------|--------------------------|
--------------------------------|--------------------------|
--------------12--10------10----|--------------------------|
--0--0--0--0----------12--10----|--0--0--0--0--0--0--0--0--|
--0--0--0--0--------------10----|--0--0--0--0--0--0--0--0--|


  PM PM PM PM                      PM PM PM PM PM PM PM PM  
               |---3---|                                    
  E  E  E  E   E   E   E   Q       E  E  E  E  E  E  E  E   
--------------------------------|--------------------------|
--------------------------------|--------------------------|
--------------------------------|--------------------------|
--------------12--10------10----|--------------------------|
--0--0--0--0----------12--10----|--0--0--0--0--0--0--0--0--|
--0--0--0--0--------------10----|--0--0--0--0--0--0--0--0--|


  PM PM PM PM                                                               
               |---3---|                                                    
  E  E  E  E   E   E   E     Q        W                   W                 
-----------------------------------|-------------------|-------------------|
-----------------------------------|-------------------|-------------------|
-----------------------------------|-------------------|-------------------|
--------------12--10------<>10~----|--8----------------|--L----------------|
--0--0--0--0----------12-----------|--8----------------|--L----------------|
--0--0--0--0-----------------------|--8----------------|--L----------------|


  W                   W                   E  E  E  E  E  E  E  E   
-------------------|-------------------|--------------------------|
-------------------|-------------------|--------------------------|
-------------------|-------------------|--------------------------|
--3----------------|--L----------------|--------------------------|
--3----------------|--L----------------|--0--0--0--0-----0--0--0--|
--3----------------|--L----------------|--0--0--0--0-----0--0--0--|


  E  E  E  E  E  E  E  E     E  E  E  E  E  E  E  E   
--------------------------|--------------------------|
--------------------------|--------------------------|
--------------------------|--------------------------|
--------------------------|--------------------------|
-----0-----0--0--0-----0--|--0--0--0--0-----0--0--0--|
-----0-----0--0--0-----0--|--0--0--0--0-----0--0--0--|


  E  E  E  E  E  E  E  E     W                   W                 
--------------------------|-------------------|-------------------|
--------------------------|-------------------|-------------------|
--------------------------|-------------------|-------------------|
--------------------------|--8----------------|--L----------------|
-----0-----0--0--0-----0--|--8----------------|--L----------------|
-----0-----0--0--0-----0--|--8----------------|--L----------------|


  W                   W                   E  E  E  E  E  E  E  E   
-------------------|-------------------|--------------------------|
-------------------|-------------------|--------------------------|
-------------------|-------------------|--------------------------|
--3----------------|--L----------------|--------------------------|
--3----------------|--L----------------|--0--0--0--0-----0--0--0--|
--3----------------|--L----------------|--0--0--0--0-----0--0--0--|


  E  E  E  E  E  E  E  E     E  E  E  E  E  E  E  E   
--------------------------|--------------------------|
--------------------------|--------------------------|
--------------------------|--------------------------|
--------------------------|--------------------------|
-----0-----0--0--0-----0--|--0--0--0--0-----0--0--0--|
-----0-----0--0--0-----0--|--0--0--0--0-----0--0--0--|


  E  E  E  E  E  E  E  E     E  E  E  E  Q    E  E     E  E  H.            
--------------------------|-------------------------|---------------------|
--------------------------|-------------------------|---------------------|
--------------------------|-------------------------|---------------------|
--------------------------|-------------------------|---------------------|
-----0-----0--0--0-----0--|--0--0--0--0-------0--0--|--0--0---------------|
-----0-----0--0--0-----0--|--0--0--0--0-------0--0--|--0--0---------------|


  E  E  E  E  Q    E  E     E  E  H.              E  E  E  E  Q    E  E   
-------------------------|---------------------|-------------------------|
-------------------------|---------------------|-------------------------|
-------------------------|---------------------|-------------------------|
-------------------------|---------------------|-------------------------|
--0--0--0--0-------0--0--|--0--0---------------|--5--5--5--5-------5--5--|
--0--0--0--0-------0--0--|--0--0---------------|--5--5--5--5-------5--5--|


  E  E  H.              E  E  E  E  Q    E  E     E  E  H.            
---------------------|-------------------------|---------------------|
---------------------|-------------------------|---------------------|
---------------------|-------------------------|---------------------|
---------------------|-------------------------|---------------------|
--5--5---------------|--0--0--0--0-------3--3--|--3--3---------------|
--5--5---------------|--0--0--0--0-------3--3--|--3--3---------------|


  E  E  E  E  Q    E  E     E  E  H.              E  E  E  E  Q    E  E   
-------------------------|---------------------|-------------------------|
-------------------------|---------------------|-------------------------|
-------------------------|---------------------|-------------------------|
-------------------------|---------------------|-------------------------|
--0--0--0--0-------0--0--|--0--0---------------|--0--0--0--0-------0--0--|
--0--0--0--0-------0--0--|--0--0---------------|--0--0--0--0-------0--0--|


  E  E  H.              E  E  E  E  Q    E  E     E  E  H.            
---------------------|-------------------------|---------------------|
---------------------|-------------------------|---------------------|
---------------------|-------------------------|---------------------|
---------------------|-------------------------|---------------------|
--0--0---------------|--5--5--5--5-------5--5--|--5--5---------------|
--0--0---------------|--5--5--5--5-------5--5--|--5--5---------------|


                                                  PM PM PM    PM PM    PM  
  E  E  E  E  Q    E  E     E  E  H.              E  E  E  E  E  E  E  E   
-------------------------|---------------------|--------------------------|
-------------------------|---------------------|--------------------------|
-------------------------|---------------------|-----------7--------------|
-------------------------|---------------------|--------------------7-----|
--0--0--0--0-------3--3--|--3--3---------------|--------------------------|
--0--0--0--0-------3--3--|--3--3---------------|--0--0--0-----0--0-----0--|


  PM    PM                   PM PM PM    PM PM    PM  
  E  E  E  E  E  E  E  E     E  E  E  E  E  E  E  E   
--------------------------|--------------------------|
--------------------------|--------------------------|
--------------------------|-----------7--------------|
-----------5--------------|--------------------7-----|
-----8--------8--7--5--7--|--------------------------|
--0-----0-----------------|--0--0--0-----0--0-----0--|


  PM    PM                   PM PM PM    PM PM    PM  
  E  E  E  E  E  E  E  E     E  E  E  E  E  E  E  E   
--------------------------|--------------------------|
--------------------------|--------------------------|
-----5--------------------|-----------7--------------|
-----------8--7--5-----5--|--------------------7-----|
--------------------8-----|--------------------------|
--0-----0-----------------|--0--0--0-----0--0-----0--|


  PM    PM                   PM PM PM    PM PM    PM  
  E  E  E  E  E  E  E  E     E  E  E  E  E  E  E  E   
--------------------------|--------------------------|
--------------------------|--------------------------|
--------------------------|-----------7--------------|
-----------5--------------|--------------------7-----|
-----8--------8--7--5--7--|--------------------------|
--0-----0-----------------|--0--0--0-----0--0-----0--|


  PM    PM                            PM PM         PM PM      PM PM       
  E  E  E  E  E  E  E  E     H        E  E  Q       E  E  Q    E  E  Q     
--------------------------|----------------------|------------------------|
--------------------------|----------------------|------------------------|
-----5--------------------|----------------------|------------------------|
-----------8--7--5-----5--|--3--------------5----|--------7----------3----|
--------------------8-----|--3--------------5----|--------7----------3----|
--0-----0-----------------|--3--------3--3-------|--3--3-------3--3-------|


           PM PM PM PM                                        PM PM       
  H        E  E  E  E     E  E  E  E  E  E  E  E     H        E  E  Q     
-----------------------|--------------------------|----------------------|
-----------------------|--------------------------|----------------------|
-----------------------|--------------------------|----------------------|
--2--------------------|--7--5--------5-----------|--3--------------5----|
--2--------------------|--------8--7-----8--7--5--|--3--------------5----|
--2--------2--2--2--2--|--------------------------|--3--------3--3-------|


  PM PM      PM PM                  PM PM PM PM                             
  E  E  Q    E  E  Q       H        E  E  E  E     E  E  E  E  E  E  E  E   
------------------------|-----------------------|--------------------------|
------------------------|-----------------------|--------------------------|
------------------------|-----------------------|--------------------------|
--------7----------3----|--2--------------------|--7--5--------5-----------|
--------7----------3----|--2--------------------|--------8--7-----8--7--5--|
--3--3-------3--3-------|--2--------2--2--2--2--|--------------------------|


  PM PM PM PM PM PM PM PM    PM PM PM PM                    
                                          |---3---|         
  E  E  E  E  E  E  E  E     E  E  E  E   E   E   E   Q     
--------------------------|--------------------------------|
--------------------------|--------------------------------|
--------------------------|--------------------------------|
--------------------------|--------------12--10------10----|
--0--0--0--0--0--0--0--0--|--0--0--0--0----------12--10----|
--0--0--0--0--0--0--0--0--|--0--0--0--0--------------10----|


  PM PM PM PM PM PM PM PM    PM PM PM PM                    
                                          |---3---|         
  E  E  E  E  E  E  E  E     E  E  E  E   E   E   E   Q     
--------------------------|--------------------------------|
--------------------------|--------------------------------|
--------------------------|--------------------------------|
--------------------------|--------------12--10------10----|
--0--0--0--0--0--0--0--0--|--0--0--0--0----------12--10----|
--0--0--0--0--0--0--0--0--|--0--0--0--0--------------10----|


  PM PM PM PM PM PM PM PM    PM PM PM PM                    
                                          |---3---|         
  E  E  E  E  E  E  E  E     E  E  E  E   E   E   E   Q     
--------------------------|--------------------------------|
--------------------------|--------------------------------|
--------------------------|--------------------------------|
--------------------------|--------------12--10------10----|
--0--0--0--0--0--0--0--0--|--0--0--0--0----------12--10----|
--0--0--0--0--0--0--0--0--|--0--0--0--0--------------10----|


  PM PM PM PM PM PM PM PM    PM PM PM PM                       
                                          |---3---|            
  E  E  E  E  E  E  E  E     E  E  E  E   E   E   E     Q      
--------------------------|-----------------------------------|
--------------------------|-----------------------------------|
--------------------------|-----------------------------------|
--------------------------|--------------12--10------<>10~----|
--0--0--0--0--0--0--0--0--|--0--0--0--0----------12-----------|
--0--0--0--0--0--0--0--0--|--0--0--0--0--------------------
Добавлено: 13.07.2012
Другие материалы по этой песне:

Страница создана 17.06.2012
http://primanota.ru/drop-dead/darker-than-black-chords.htm
Привет, Гость.
Предлагаем пройти революционный курс по гитаре.
Подарок от PrimaNota.Ru, забирай!