PrimaNota.ru - самый крупный в мире бесплатный архив песенных текстов, аккордов, табулатур и нот


Drop Dead - Aftershock - таба, бас-таба, драм-таба, видео

Регистрация Запомнить меня
Войти через:  Facebook Google Twitter Vk Yandex Mail.ru

Drop Dead - Aftershock - таба, бас-таба, драм-таба, видео

Печатать
Просмотров: 168
Aftershock
Drop Dead
Drop Dead
Kwonnie - kwonnie@live.com

Center Guitar



     W                   W                    E  E   E   E   E  E   E  E   
D||-------------------|-------------------|-------------------------------|
A||-------------------|-------------------|-------------------------------|
F||-------------------|-------------------|-------------------------------|
C||-------------------|-------------------|--14--0--15--14--12--0--14--0--|
G||-------------------|-------------------|-------------------------------|
C||-------------------|-------------------|-------------------------------|


   E  E   E   E   E  E   E  E      E  E   E   E   E   E  E   E   
-------------------------------|--------------------------------|
-------------------------------|----------------------------13--|
-------------------------------|---------------------12---------|
--14--0--15--14--12--0--14--0--|--14--0--15--14--12------0------|
-------------------------------|--------------------------------|
-------------------------------|--------------------------------|


  E   E   E   E   E  E   E  E      E  E   E   E   E  E   E  E   
-------------------------------|-------------------------------|
-------------------------------|-------------------------------|
-----15--14--12---------12-----|-------------------------------|
--0--------------15--0------0--|--14--0--15--14--12--0--14--0--|
-------------------------------|-------------------------------|
-------------------------------|-------------------------------|


   E  E   E   E   E  E   E  E      E  E   E   E   E   E  E   E   
-------------------------------|--------------------------------|
-------------------------------|----------------------------13--|
-------------------------------|---------------------12---------|
--14--0--15--14--12--0--14--0--|--14--0--15--14--12------0------|
-------------------------------|--------------------------------|
-------------------------------|--------------------------------|


   E  E   E   E  E   E   E  E      E  E   E   E   E  E   E  E   
-------------------------------|-------------------------------|
-------------------------------|-------------------------------|
--15-----15--14---------12-----|-------------------------------|
------0----------0--15------0--|--14--0--15--14--12--0--14--0--|
-------------------------------|-------------------------------|
-------------------------------|-------------------------------|


   E  E   E   E   E  E   E  E      E  E   E   E   E   E  E   E   
-------------------------------|--------------------------------|
-------------------------------|----------------------------13--|
-------------------------------|---------------------12---------|
--14--0--15--14--12--0--14--0--|--14--0--15--14--12------0------|
-------------------------------|--------------------------------|
-------------------------------|--------------------------------|


  E   E   E   E   E  E   E  E      E  E   E   E   E  E   E  E   
-------------------------------|-------------------------------|
-------------------------------|-------------------------------|
-----15--14--12---------12-----|-------------------------------|
--0--------------15--0------0--|--14--0--15--14--12--0--14--0--|
-------------------------------|-------------------------------|
-------------------------------|-------------------------------|


   E  E   E   E   E  E   E  E      E  E   E   E   E   E  E   E   
-------------------------------|--------------------------------|
-------------------------------|----------------------------13--|
-------------------------------|---------------------12---------|
--14--0--15--14--12--0--14--0--|--14--0--15--14--12------0------|
-------------------------------|--------------------------------|
-------------------------------|--------------------------------|


   E  E   E   E  E   E   E  E   
-------------------------------|
-------------------------------|
--15-----15--14---------12-----|
------0----------0--15------0--|
-------------------------------|
-------------------------------|


   PM PMPM PM  PM PM PM PM PM PMPM PM  PM PMPM PM  
   S  S S  S   S  S  S  S  S  S S  S   S  S S  S   
--------------------------------------------------|
--------------------------------------------------|
--------------------------------------------------|
--14-14-0--0--15-15-14-14-12-12-0--0--14-14-0--0--|
--------------------------------------------------|
--------------------------------------------------|


   PM PMPM PM  PM PM PM PM PM PMPM PM  PM PMPM PM  
   S  S S  S   S  S  S  S  S  S S  S   S  S S  S   
--------------------------------------------------|
--------------------------------------------------|
--------------------------------------------------|
--14-14-0--0--15-15-14-14-12-12-0--0--14-14-0--0--|
--------------------------------------------------|
--------------------------------------------------|


   PM PMPM PM  PM PM PM PM PM PMPM PM  PM PMPM PM  
   S  S S  S   S  S  S  S  S  S S  S   S  S S  S   
--------------------------------------------------|
--------------------------------------------------|
--------------------------------------------------|
--14-14-0--0--15-15-14-14-12-12-0--0--14-14-0--0--|
--------------------------------------------------|
--------------------------------------------------|


   PM PMPM PM  PM PMPM PM  PM PMPM PM  PM PMPM PM  
   S  S S  S   S  S S  S   S  S S  S   S  S S  S   
--------------------------------------------------|
--------------------------------------------------|
--------------------------------------------------|
--17-17-0--0--15-15-0--0--14-14-0--0--10-10-0--0--|
--------------------------------------------------|
--------------------------------------------------|


   PM PMPM PM  PM PM PM PM PM PMPM PM  PM PMPM PM  
   S  S S  S   S  S  S  S  S  S S  S   S  S S  S   
--------------------------------------------------|
--------------------------------------------------|
--------------------------------------------------|
--14-14-0--0--15-15-14-14-12-12-0--0--14-14-0--0--|
--------------------------------------------------|
--------------------------------------------------|


   PM PMPM PM  PM PM PM PM PM PMPM PM  PM PMPM PM  
   S  S S  S   S  S  S  S  S  S S  S   S  S S  S   
--------------------------------------------------|
--------------------------------------------------|
--------------------------------------------------|
--14-14-0--0--15-15-14-14-12-12-0--0--14-14-0--0--|
--------------------------------------------------|
--------------------------------------------------|


   PM PMPM PM  PM PM PM PM PM PMPM PM  PM PMPM PM  
   S  S S  S   S  S  S  S  S  S S  S   S  S S  S   
--------------------------------------------------|
--------------------------------------------------|
--------------------------------------------------|
--14-14-0--0--15-15-14-14-12-12-0--0--14-14-0--0--|
--------------------------------------------------|
--------------------------------------------------|


   PM PMPM PM  PM PMPM PM  PM PMPM PM  PM PMPM PM                       
   S  S S  S   S  S S  S   S  S S  S   S  S S  S      W                 
--------------------------------------------------|--------------------|
--------------------------------------------------|--------------------|
--------------------------------------------------|--------------------|
--17-17-0--0--15-15-0--0--14-14-0--0--10-10-0--0--|--12----------------|
--------------------------------------------------|--------------------|
--------------------------------------------------|--------------------|


   W                    Q.      Q.      Q        W                 
--------------------|------------------------|--------------------|
--------------------|------------------------|--------------------|
--------------------|------------------------|--------------------|
---L----------------|--12------15------14----|--10----------------|
--------------------|------------------------|--------------------|
--------------------|------------------------|--------------------|


   W                    W                    Q.      Q.      Q     
--------------------|--------------------|------------------------|
--------------------|--------------------|------------------------|
--------------------|--------------------|------------------------|
--12----------------|---L----------------|--12------15------14----|
--------------------|--------------------|------------------------|
--------------------|--------------------|------------------------|


   H        H            W                   W                 
---------------------|--------------------|-------------------|
---------------------|--------------------|-------------------|
---------------------|--------------------|-------------------|
--10--------8--------|--12----------------|--L----------------|
---------------------|--------------------|-------------------|
---------------------|--------------------|-------------------|


  W                   W                   W                   W                 
-------------------|-------------------|-------------------|-------------------|
-------------------|-------------------|-------------------|-------------------|
-------------------|-------------------|-------------------|-------------------|
-------------------|-------------------|-------------------|-------------------|
-------------------|-------------------|-------------------|-------------------|
-------------------|-------------------|-------------------|-------------------|


  W                   W                   W                   W                 
-------------------|-------------------|-------------------|-------------------|
-------------------|-------------------|-------------------|-------------------|
-------------------|-------------------|-------------------|-------------------|
-------------------|-------------------|-------------------|-------------------|
-------------------|-------------------|-------------------|-------------------|
-------------------|-------------------|-------------------|-------------------|


  W                   W                   W                   W                 
-------------------|-------------------|-------------------|-------------------|
-------------------|-------------------|-------------------|-------------------|
-------------------|-------------------|-------------------|-------------------|
-------------------|-------------------|-------------------|-------------------|
-------------------|-------------------|-------------------|-------------------|
-------------------|-------------------|-------------------|-------------------|


  W                   W                   W                   W                 
-------------------|-------------------|-------------------|-------------------|
-------------------|-------------------|-------------------|-------------------|
-------------------|-------------------|-------------------|-------------------|
-------------------|-------------------|-------------------|-------------------|
-------------------|-------------------|-------------------|-------------------|
-------------------|-------------------|-------------------|-------------------|


  W                   W                   W                   W                 
-------------------|-------------------|-------------------|-------------------|
-------------------|-------------------|-------------------|-------------------|
-------------------|-------------------|-------------------|-------------------|
-------------------|-------------------|-------------------|-------------------|
-------------------|-------------------|-------------------|-------------------|
-------------------|-------------------|-------------------|-------------------|


  W                   W                    E  E   E   E   E  E   E  E   
-------------------|-------------------|-------------------------------|
-------------------|-------------------|-------------------------------|
-------------------|-------------------|-------------------------------|
-------------------|-------------------|--14--0--15--14--12--0--14--0--|
-------------------|-------------------|-------------------------------|
-------------------|-------------------|-------------------------------|


   E  E   E   E   E  E   E  E      E  E   E   E   E   E  E   E   
-------------------------------|--------------------------------|
-------------------------------|----------------------------13--|
-------------------------------|---------------------12---------|
--14--0--15--14--12--0--14--0--|--14--0--15--14--12------0------|
-------------------------------|--------------------------------|
-------------------------------|--------------------------------|


  E   E   E   E   E  E   E  E      E  E   E   E   E  E   E  E   
-------------------------------|-------------------------------|
-------------------------------|-------------------------------|
-----15--14--12---------12-----|-------------------------------|
--0--------------15--0------0--|--14--0--15--14--12--0--14--0--|
-------------------------------|-------------------------------|
-------------------------------|-------------------------------|


   E  E   E   E   E  E   E  E      E  E   E   E   E   E  E   E   
-------------------------------|--------------------------------|
-------------------------------|----------------------------13--|
-------------------------------|---------------------12---------|
--14--0--15--14--12--0--14--0--|--14--0--15--14--12------0------|
-------------------------------|--------------------------------|
-------------------------------|--------------------------------|


   E  E   E   E  E   E   E  E      E  E   E   E   E  E   E  E   
-------------------------------|-------------------------------|
-------------------------------|-------------------------------|
--15-----15--14---------12-----|-------------------------------|
------0----------0--15------0--|--14--0--15--14--12--0--14--0--|
-------------------------------|-------------------------------|
-------------------------------|-------------------------------|


   E  E   E   E   E  E   E  E      E  E   E   E   E   E  E   E   
-------------------------------|--------------------------------|
-------------------------------|----------------------------13--|
-------------------------------|---------------------12---------|
--14--0--15--14--12--0--14--0--|--14--0--15--14--12------0------|
-------------------------------|--------------------------------|
-------------------------------|--------------------------------|


  E   E   E   E   E  E   E  E      E  E   E   E   E  E   E  E   
-------------------------------|-------------------------------|
-------------------------------|-------------------------------|
-----15--14--12---------12-----|-------------------------------|
--0--------------15--0------0--|--14--0--15--14--12--0--14--0--|
-------------------------------|-------------------------------|
-------------------------------|-------------------------------|


   E  E   E   E   E  E   E  E      E  E   E   E   E   E  E   E   
-------------------------------|--------------------------------|
-------------------------------|----------------------------13--|
-------------------------------|---------------------12---------|
--14--0--15--14--12--0--14--0--|--14--0--15--14--12------0------|
-------------------------------|--------------------------------|
-------------------------------|--------------------------------|


   E  E   E   E  E   E   E  E     W                   W                 
-------------------------------|-------------------|-------------------|
-------------------------------|-------------------|-------------------|
--15-----15--14---------12-----|-------------------|-------------------|
------0----------0--15------0--|-------------------|-------------------|
-------------------------------|-------------------|-------------------|
-------------------------------|-------------------|-------------------|


  W                   W                   W                   W                 
-------------------|-------------------|-------------------|-------------------|
-------------------|-------------------|-------------------|-------------------|
-------------------|-------------------|-------------------|-------------------|
-------------------|-------------------|-------------------|-------------------|
-------------------|-------------------|-------------------|-------------------|
-------------------|-------------------|-------------------|-------------------|


  W                   W                   W                   W                 
-------------------|-------------------|-------------------|-------------------|
-------------------|-------------------|-------------------|-------------------|
-------------------|-------------------|-------------------|-------------------|
-------------------|-------------------|-------------------|-------------------|
-------------------|-------------------|-------------------|-------------------|
-------------------|-------------------|-------------------|-------------------|


  W                   W                   W                   W                 
-------------------|-------------------|-------------------|-------------------|
-------------------|-------------------|-------------------|-------------------|
-------------------|-------------------|-------------------|-------------------|
-------------------|-------------------|-------------------|-------------------|
-------------------|-------------------|-------------------|-------------------|
-------------------|-------------------|-------------------|-------------------|


  W                   W                   W                   W                 
-------------------|-------------------|-------------------|-------------------|
-------------------|-------------------|-------------------|-------------------|
-------------------|-------------------|-------------------|-------------------|
-------------------|-------------------|-------------------|-------------------|
-------------------|-------------------|-------------------|-------------------|
-------------------|-------------------|-------------------|-------------------|


  W                   W                   W                   W                 
-------------------|-------------------|-------------------|-------------------|
-------------------|-------------------|-------------------|-------------------|
-------------------|-------------------|-------------------|-------------------|
-------------------|-------------------|-------------------|-------------------|
-------------------|-------------------|-------------------|-------------------|
-------------------|-------------------|-------------------|-------------------|


  W                   W                   W                   W                 
-------------------|-------------------|-------------------|-------------------|
-------------------|-------------------|-------------------|-------------------|
-------------------|-------------------|-------------------|-------------------|
-------------------|-------------------|-------------------|-------------------|
-------------------|-------------------|-------------------|-------------------|
-------------------|-------------------|-------------------|-------------------|


  W                   W                   W                   W                 
-------------------|-------------------|-------------------|-------------------|
-------------------|-------------------|-------------------|-------------------|
-------------------|-------------------|-------------------|-------------------|
-------------------|-------------------|-------------------|-------------------|
-------------------|-------------------|-------------------|-------------------|
-------------------|-------------------|-------------------|-------------------|


  W                   W                   W                   W                 
-------------------|-------------------|-------------------|-------------------|
-------------------|-------------------|-------------------|-------------------|
-------------------|-------------------|-------------------|-------------------|
-------------------|-------------------|-------------------|-------------------|
-------------------|-------------------|-------------------|-------------------|
-------------------|-------------------|-------------------|-------------------|


  W                   W                   W                   W                 
-------------------|-------------------|-------------------|-------------------|
-------------------|-------------------|-------------------|-------------------|
-------------------|-------------------|-------------------|-------------------|
-------------------|-------------------|-------------------|-------------------|
-------------------|-------------------|-------------------|-------------------|
-------------------|-------------------|-------------------|-------------------|


  W                   W                   W                   W                 
-------------------|-------------------|-------------------|-------------------|
-------------------|-------------------|-------------------|-------------------|
-------------------|-------------------|-------------------|-------------------|
-------------------|-------------------|-------------------|-------------------|
-------------------|-------------------|-------------------|-------------------|
-------------------|-------------------|-------------------|-------------------|


  W                   W                   W                   W                 
-------------------|-------------------|-------------------|-------------------|
-------------------|-------------------|-------------------|-------------------|
-------------------|-------------------|-------------------|-------------------|
-------------------|-------------------|-------------------|-------------------|
-------------------|-------------------|-------------------|-------------------|
-------------------|-------------------|-------------------|-------------------|


  W                   W                    E  E  E   E  Q     E  E   
-------------------|-------------------|----------------------------|
-------------------|-------------------|----------------------------|
-------------------|-------------------|----------------------------|
-------------------|-------------------|--10--8--------------10--8--|
-------------------|-------------------|---------7--10--L-----------|
-------------------|-------------------|----------------------------|


  E   E  Q     E  E  E  E      E  E  E  E  Q    E   E   
---------------------------|---------------------------|
---------------------------|---------------------------|
---------------------------|---------------------------|
--------------10--8--7--8--|--10--8--------------------|
--7--10--L-----------------|---------7--8--L----7--10--|
---------------------------|---------------------------|


                                T           T     T           T     T           
  E  E   E  E  E   E  E  E      S  S  S  S  S  S  S  S  S  S  S  S  S  S  S  S  
----------------------------|--------------------------------------------------|
----------------------------|--------------------------------------------------|
-------------------------7--|--15p-5p-3p-2-15p-5-15p-5p-3p-2-15p-5-15p-5p-3p-2-|
-----7------8--7--10--8-----|--------------------------------------------------|
--8-----10------------------|--------------------------------------------------|
----------------------------|--------------------------------------------------|


   T           T     T           T     T           
   S  S  S  S  S  S  S  S  S  S  S  S  S  S  S  S  
--------------------------------------------------|
--------------------------------------------------|
--14p-5p-3p-2-14p-5-14p-5p-3p-2-14p-5-14p-5p-3p-2-|
--------------------------------------------------|
--------------------------------------------------|
--------------------------------------------------|


   T           T     T           T     T           
   S  S  S  S  S  S  S  S  S  S  S  S  S  S  S  S  
--------------------------------------------------|
--------------------------------------------------|
--12p-5p-3p-2-12p-5-12p-5p-3p-2-12p-5-12p-5p-3p-2-|
--------------------------------------------------|
--------------------------------------------------|
--------------------------------------------------|


   S  S  S  S  S  S  S  S  S  S  S  S  Q      
---------------------------------------------|
---------------------------------------------|
--15-14-12----14-12-------12-----------------|
-----------15-------15-14----15-14-12-15~----|
---------------------------------------------|
---------------------------------------------|


   T           T     T           T     T           
   S  S  S  S  S  S  S  S  S  S  S  S  S  S  S  S  
--18p-8p-6p-5-18p-8-18p-8p-6p-5-18p-8-18p-8p-6p-5-|
--------------------------------------------------|
--------------------------------------------------|
--------------------------------------------------|
--------------------------------------------------|
--------------------------------------------------|


   T           T     T           T     T           
   S  S  S  S  S  S  S  S  S  S  S  S  S  S  S  S  
--17p-8p-6p-5-17p-8-17p-8p-6p-5-17p-8-17p-8p-6p-5-|
--------------------------------------------------|
--------------------------------------------------|
--------------------------------------------------|
--------------------------------------------------|
--------------------------------------------------|


   T           T     T           T     T           
   S  S  S  S  S  S  S  S  S  S  S  S  S  S  S  S  
--15p-8p-6p-5-15p-8-15p-8p-6p-5-15p-8-15p-8p-6p-5-|
--------------------------------------------------|
--------------------------------------------------|
--------------------------------------------------|
--------------------------------------------------|
--------------------------------------------------|


                           |---3---|   |---3---|   
   S  S  S  S  S  S  S  S  E   E   E   E   E   E   
--18-17-15----17-15-------------------------------|
-----------18-------18-17-18--17--15--17--15--13--|
--------------------------------------------------|
--------------------------------------------------|
--------------------------------------------------|
--------------------------------------------------|


   |---3---|   |---3---|   |---3---|   |---3---|   
   E   E   E   E   E   E   E   E   E   E   E   E   
--13--12--10------12--10----------10--------------|
--------------13----------13--11------13--11--10--|
--------------------------------------------------|
--------------------------------------------------|
--------------------------------------------------|
--------------------------------------------------|


   |---3---|                         
   E   E   E   Q    S S S S S S S S  
--------------------6-5-----5-------|
--13--11--10------------8-6---8-6-5-|
--------------12--------------------|
------------------------------------|
------------------------------------|
------------------------------------|


  S  S  S S  S  S S  S  S S  S  S S  S  S  S    E  E   E  E   E  E    Q      
---------------------------------------------|------------------------------|
--8p-6p-5------------------------------------|------------------------------|
----------7p-5p-3----------------------------|----------------------<>7b----|
------------------7p-5p-3--------------------|------------7--10--8----------|
--------------------------7p-5p-3------------|--7--8--10--------------------|
----------------------------------8p-7p-5p-0-|------------------------------|


  W                   W                   W                   W                 
-------------------|-------------------|-------------------|-------------------|
-------------------|-------------------|-------------------|-------------------|
-------------------|-------------------|-------------------|-------------------|
-------------------|-------------------|-------------------|-------------------|
-------------------|-------------------|-------------------|-------------------|
-------------------|-------------------|-------------------|-------------------|


   E  E   E   E   E  E   E  E      E  E   E   E   E  E   E  E   
-------------------------------|-------------------------------|
-------------------------------|-------------------------------|
-------------------------------|-------------------------------|
--14--0--15--14--12--0--14--0--|--14--0--15--14--12--0--14--0--|
-------------------------------|-------------------------------|
-------------------------------|-------------------------------|


   E  E   E   E   E   E  E   E     E   E   E   E   E  E   E  E   
--------------------------------|-------------------------------|
----------------------------13--|-------------------------------|
---------------------12---------|-----15--14--12---------12-----|
--14--0--15--14--12------0------|--0--------------15--0------0--|
--------------------------------|-------------------------------|
--------------------------------|-------------------------------|


   E  E   E   E   E  E   E  E      E  E   E   E   E  E   E  E   
-------------------------------|-------------------------------|
-------------------------------|-------------------------------|
-------------------------------|-------------------------------|
--14--0--15--14--12--0--14--0--|--14--0--15--14--12--0--14--0--|
-------------------------------|-------------------------------|
-------------------------------|-------------------------------|


   E  E   E   E   E   E  E   E      E  E   E   E  E   E   E  E    
--------------------------------|-------------------------------||
----------------------------13--|-------------------------------||
---------------------12---------|--15-----15--14---------12-----||
--14--0--15--14--12------0------|------0----------0--15---------||
--------------------------------|-------------------------------||
--------------------------------|-------------------------------||



Left Guitar



     W                   W                   W                 
D||-------------------|-------------------|-------------------|
A||-------------------|-------------------|-------------------|
F||-------------------|-------------------|-------------------|
C||-------------------|-------------------|--0----------------|
G||-------------------|-------------------|--0----------------|
C||-------------------|-------------------|--0----------------|


  W                   W                   W                   W                 
-------------------|-------------------|-------------------|-------------------|
-------------------|-------------------|-------------------|-------------------|
-------------------|-------------------|-------------------|-------------------|
--L----------------|--L----------------|--L----------------|--0----------------|
--L----------------|--L----------------|--L----------------|--0----------------|
--L----------------|--L----------------|--L----------------|--0----------------|


  W                   W                   H.            Q      
-------------------|-------------------|----------------------|
-------------------|-------------------|----------------------|
-------------------|-------------------|----------------------|
--L----------------|--L----------------|--L------------12\----|
--L----------------|--L----------------|--L------------12\----|
--L----------------|--L----------------|--L------------12\----|


  PM            PM      PM            PM      PM                 
  Q    H        Q       Q    H        Q       Q    H.            
---------------------|---------------------|--------------------|
---------------------|---------------------|--------------------|
---------------------|---------------------|--------------------|
--0-------------0----|--0-------------0----|--0-----------------|
--0-------------0----|--0-------------0----|--0-----------------|
--0-------------0----|--0-------------0----|--0-----------------|


                       PM            PM      PM            PM    
  H.           Q       Q    H        Q       Q    H        Q     
--------------------|---------------------|---------------------|
--------------------|---------------------|---------------------|
--------------------|---------------------|---------------------|
---------------8----|--0-------------0----|--0-------------0----|
---------------8----|--0-------------0----|--0-------------0----|
---------------8----|--0-------------0----|--0-------------0----|


  PM                                        PM PM          PM     
  Q    H.              H.           Q       E  E  H        E  E   
--------------------|--------------------|-----------------------|
--------------------|--------------------|-----------------------|
--------------------|--------------------|-----------------------|
--0-----------------|---------------8----|--0--0-----------0-----|
--0-----------------|---------------8----|--0--0-----------0-----|
--0-----------------|---------------8----|--0--0-----------0-----|


  PM PM          PM       PM PM          PM       PM PM      PM PM       
  E  E  H        E  E     E  E  H        E  E     E  E  Q    E  E  Q     
-----------------------|-----------------------|------------------------|
-----------------------|-----------------------|------------------------|
-----------------------|-----------------------|------------------------|
--0--0-----------0-----|--0--0-----------0-----|--0--0-------5--5-------|
--0--0-----------0-----|--0--0-----------0-----|--0--0-------5--5-------|
--0--0-----------0-----|--0--0-----------0-----|--0--0-------5--5-------|


  PM PM          PM       PM PM          PM       PM PM          PM     
  E  E  H        E  E     E  E  H        E  E     E  E  H        E  E   
-----------------------|-----------------------|-----------------------|
-----------------------|-----------------------|-----------------------|
-----------------------|-----------------------|-----------------------|
--0--0-----------0-----|--0--0-----------0-----|--0--0-----------0-----|
--0--0-----------0-----|--0--0-----------0-----|--0--0-----------0-----|
--0--0-----------0-----|--0--0-----------0-----|--0--0-----------0-----|


  PM    PM    PM               PM PM          PM      PM PM          PM    
  E  E  E  E  E  E    Q        E  E  H        Q       E  E  H        Q     
----------------------------|----------------------|----------------------|
----------------------------|----------------------|----------------------|
----------------------------|----------------------|----------------------|
--0--x--0--x--0--x--<>5b----|--0--0--L--------0----|--0--0--L--------0----|
--0--x--0--x--0--x----------|--0--0--L--------0----|--0--0--L--------0----|
--0--x--0--x--0--x----------|--0--0--L--------0----|--0--0--L--------0----|


  PM PM          PM      PM PM      PM PM         PM PM          PM    
  E  E  H        Q       E  E  Q    E  E  Q       E  E  H        Q     
----------------------|------------------------|----------------------|
----------------------|------------------------|----------------------|
----------------------|------------------------|----------------------|
--0--0--L--------0----|--0--0--L----5--5--L----|--0--0--L--------0----|
--0--0--L--------0----|--0--0--L----5--5--L----|--0--0--L--------0----|
--0--0--L--------0----|--0--0--L----5--5--L----|--0--0--L--------0----|


  PM PM          PM      PM PM          PM      PM PM PM PM PM PM         
  E  E  H        Q       E  E  H        Q       E  E  E  E  E  E   Q      
----------------------|----------------------|---------------------------|
----------------------|----------------------|---------------------------|
----------------------|----------------------|---------------------------|
--0--0--L--------0----|--0--0--L--------0----|--0--0--0--0--0--0--12\----|
--0--0--L--------0----|--0--0--L--------0----|--0--0--0--0--0--0--12\----|
--0--0--L--------0----|--0--0--L--------0----|--0--0--0--0--0--0--12\----|


  H.           Q       W                   H.           Q     
--------------------|-------------------|--------------------|
--------------------|-------------------|--------------------|
--------------------|-------------------|--------------------|
--0------------5----|--L----------------|--3------------7----|
--0------------5----|--L----------------|--3------------7----|
--0------------5----|--L----------------|--3------------7----|


  H        H           H.           Q       W                 
--------------------|--------------------|-------------------|
--------------------|--------------------|-------------------|
--------------------|--------------------|-------------------|
--L--------5--------|--0------------5----|--L----------------|
--L--------5--------|--0------------5----|--L----------------|
--L--------5--------|--0------------5----|--L----------------|


  H.           Q       H         H           Q    Q    Q    E  E   
--------------------|---------------------|-----------------------|
--------------------|---------------------|-----------------------|
--------------------|---------------------|-----------------------|
--3------------7----|--L--------10--------|--0----0----0----0--5--|
--3------------7----|--L--------10--------|--0----0----0----0--5--|
--3------------7----|--L--------10--------|--0----0----0----0--5--|


  E  E  Q    Q    E  E     E  E  Q    Q    E  E     E   E  E  E   E  E  E  E   
------------------------|------------------------|----------------------------|
------------------------|------------------------|----------------------------|
------------------------|------------------------|----------------------------|
--L--5--5----5----5--3--|--L--3--3----3----3--7--|--L--10--8--7---------------|
--L--5--5----5----5--3--|--L--3--3----3----3--7--|--L------------10--8--7--8--|
--L--5--5----5----5--3--|--L--3--3----3----3--7--|--L-------------------------|


  Q    Q    Q    E  E     E  E  Q    Q    E  E     E  E  Q    Q    E  E   
-----------------------|------------------------|------------------------|
-----------------------|------------------------|------------------------|
-----------------------|------------------------|------------------------|
--0----0----0----0--5--|--L--5--5----5----5--3--|--L--3--3----3----3--7--|
--0----0----0----0--5--|--L--5--5----5----5--3--|--L--3--3----3----3--7--|
--0----0----0----0--5--|--L--5--5----5----5--3--|--L--3--3----3----3--7--|


  E   E  E  E   E  E  E  E     Q    Q    Q    E  E     E  E  Q    Q    E  E   
----------------------------|-----------------------|------------------------|
----------------------------|-----------------------|------------------------|
----------------------------|-----------------------|------------------------|
--L--10--8--7---------------|--0----0----0----0--5--|--L--5--5----5----5--3--|
--L------------10--8--7--8--|--0----0----0----0--5--|--L--5--5----5----5--3--|
--L-------------------------|--0----0----0----0--5--|--L--5--5----5----5--3--|


  E  E  Q    Q    E  E     E  E  E   E  E  E   E  E     Q    Q    Q    E  E   
------------------------|----------------------------|-----------------------|
------------------------|----------------------------|-----------------------|
------------------------|-----9--7-------------------|-----------------------|
--L--3--3----3----3--7--|--L--------10--8--7------7--|--0----0----0----0--5--|
--L--3--3----3----3--7--|--L------------------10-----|--0----0----0----0--5--|
--L--3--3----3----3--7--|--L-------------------------|--0----0----0----0--5--|


  E  E  Q    Q    E  E     E  E  Q    Q    E  E     E  E  E   E  E  E   E  E   
------------------------|------------------------|----------------------------|
------------------------|------------------------|----------------------------|
------------------------|------------------------|-----9--7-------------------|
--L--5--5----5----5--3--|--L--3--3----3----3--7--|--L--------10--8--7------7--|
--L--5--5----5----5--3--|--L--3--3----3----3--7--|--L------------------10-----|
--L--5--5----5----5--3--|--L--3--3----3----3--7--|--L-------------------------|


  PM            PM      PM            PM      PM                 
  Q    H        Q       Q    H        Q       Q    H.            
---------------------|---------------------|--------------------|
---------------------|---------------------|--------------------|
---------------------|---------------------|--------------------|
--0-------------0----|--0-------------0----|--0-----------------|
--0-------------0----|--0-------------0----|--0-----------------|
--0-------------0----|--0-------------0----|--0-----------------|


                       PM            PM      PM            PM    
  H.           Q       Q    H        Q       Q    H        Q     
--------------------|---------------------|---------------------|
--------------------|---------------------|---------------------|
--------------------|---------------------|---------------------|
---------------8----|--0-------------0----|--0-------------0----|
---------------8----|--0-------------0----|--0-------------0----|
---------------8----|--0-------------0----|--0-------------0----|


  PM                                           PM            PM    
  Q    H.              H.             Q        Q    H        Q     
--------------------|-----------------------|---------------------|
--------------------|-----------------------|---------------------|
--------------------|-----------------------|---------------------|
--0-----------------|---------------<>8~----|--0-------------0----|
--0-----------------|-----------------------|--0-------------0----|
--0-----------------|-----------------------|--0-------------0----|


  PM            PM      PM                                      
  Q    H        Q       Q    H.              H.           Q     
---------------------|--------------------|--------------------|
---------------------|--------------------|--------------------|
---------------------|--------------------|--------------------|
--0-------------0----|--0-----------------|---------------8----|
--0-------------0----|--0-----------------|---------------8----|
--0-------------0----|--0-----------------|---------------8----|


  PM            PM      PM            PM      PM                 
  Q    H        Q       Q    H        Q       Q    H.            
---------------------|---------------------|--------------------|
---------------------|---------------------|--------------------|
---------------------|---------------------|--------------------|
--0-------------0----|--0-------------0----|--0-----------------|
--0-------------0----|--0-------------0----|--0-----------------|
--0-------------0----|--0-------------0----|--0-----------------|


                       PM PM                 PM PM               
  H.           Q       E  E  H.              E  E  H.            
--------------------|---------------------|---------------------|
--------------------|---------------------|---------------------|
--------------------|---------------------|---------------------|
---------------8----|--0--0---------------|--0--0---------------|
---------------8----|--0--0---------------|--0--0---------------|
---------------8----|--0--0---------------|--0--0---------------|


  PM PM                 PM PM                 PM PM               
  E  E  H.              E  E  H.              E  E  H.            
---------------------|---------------------|---------------------|
---------------------|---------------------|---------------------|
---------------------|---------------------|---------------------|
--0--0---------------|--0--0---------------|--0--0---------------|
--0--0---------------|--0--0---------------|--0--0---------------|
--0--0---------------|--0--0---------------|--0--0---------------|


  PM PM                 PM PM                 PM                 
  E  E  H.              E  E  H.              Q    H.            
---------------------|---------------------|--------------------|
---------------------|---------------------|--------------------|
---------------------|---------------------|--------------------|
--0--0---------------|--0--0---------------|--0-----------------|
--0--0---------------|--0--0---------------|--0-----------------|
--0--0---------------|--0--0---------------|--0-----------------|


  PM PM                 PM PM                 PM PM               
  E  E  H.              E  E  H.              E  E  H.            
---------------------|---------------------|---------------------|
---------------------|---------------------|---------------------|
---------------------|---------------------|---------------------|
--0--0---------------|--0--0---------------|--0--0---------------|
--0--0---------------|--0--0---------------|--0--0---------------|
--0--0---------------|--0--0---------------|--0--0---------------|


  PM PM      PM PM         PM PM                 PM PM               
  E  E  Q    E  E  Q       E  E  H.              E  E  H.            
------------------------|---------------------|---------------------|
------------------------|---------------------|---------------------|
------------------------|---------------------|---------------------|
--0--0-------5--5-------|--0--0---------------|--0--0---------------|
--0--0-------5--5-------|--0--0---------------|--0--0---------------|
--0--0-------5--5-------|--0--0---------------|--0--0---------------|


  PM PM                 PM PM                                    
  E  E  H.              E  E  H.              H.           Q     
---------------------|---------------------|--------------------|
---------------------|---------------------|--------------------|
---------------------|---------------------|--------------------|
--0--0---------------|--0--0---------------|--0------------5----|
--0--0---------------|--0--0---------------|--0------------5----|
--0--0---------------|--0--0---------------|--0------------5----|


  W                   H.           Q       H        H         
-------------------|--------------------|--------------------|
-------------------|--------------------|--------------------|
-------------------|--------------------|--------------------|
--L----------------|--3------------7----|--L--------5--------|
--L----------------|--3------------7----|--L--------5--------|
--L----------------|--3------------7----|--L--------5--------|


  H.           Q       W                   H.           Q     
--------------------|-------------------|--------------------|
--------------------|-------------------|--------------------|
--------------------|-------------------|--------------------|
--0------------5----|--L----------------|--3------------7----|
--0------------5----|--L----------------|--3------------7----|
--0------------5----|--L----------------|--3------------7----|


  H         H           H.           Q       W                 
---------------------|--------------------|-------------------|
---------------------|--------------------|-------------------|
---------------------|--------------------|-------------------|
--L--------10--------|--0------------5----|--L----------------|
--L--------10--------|--0------------5----|--L----------------|
--L--------10--------|--0------------5----|--L----------------|


  H.           Q       H        H           H.           Q     
--------------------|--------------------|--------------------|
--------------------|--------------------|--------------------|
--------------------|--------------------|--------------------|
--3------------7----|--L--------5--------|--0------------5----|
--3------------7----|--L--------5--------|--0------------5----|
--3------------7----|--L--------5--------|--0------------5----|


  W                   H.           Q       H         H         
-------------------|--------------------|---------------------|
-------------------|--------------------|---------------------|
-------------------|--------------------|---------------------|
--L----------------|--3------------7----|--L--------10--------|
--L----------------|--3------------7----|--L--------10--------|
--L----------------|--3------------7----|--L--------10--------|


  Q    Q    Q    E  E     E  E  Q    Q    E  E     E  E  Q    Q    E  E   
-----------------------|------------------------|------------------------|
-----------------------|------------------------|------------------------|
-----------------------|------------------------|------------------------|
--0----0----0----0--5--|--L--5--5----5----5--3--|--L--3--3----3----3--7--|
--0----0----0----0--5--|--L--5--5----5----5--3--|--L--3--3----3----3--7--|
--0----0----0----0--5--|--L--5--5----5----5--3--|--L--3--3----3----3--7--|


  E   E  E  E   E  E  E  E     Q    Q    Q    E  E     E  E  Q    Q    E  E   
----------------------------|-----------------------|------------------------|
----------------------------|-----------------------|------------------------|
----------------------------|-----------------------|------------------------|
--L--10--8--7---------------|--0----0----0----0--5--|--L--5--5----5----5--3--|
--L------------10--8--7--8--|--0----0----0----0--5--|--L--5--5----5----5--3--|
--L-------------------------|--0----0----0----0--5--|--L--5--5----5----5--3--|


  E  E  Q    Q    E  E     E   E  E  E   E  E  E  E     Q    Q    Q    E  E   
------------------------|----------------------------|-----------------------|
------------------------|----------------------------|-----------------------|
------------------------|----------------------------|-----------------------|
--L--3--3----3----3--7--|--L--10--8--7---------------|--0----0----0----0--5--|
--L--3--3----3----3--7--|--L------------10--8--7--8--|--0----0----0----0--5--|
--L--3--3----3----3--7--|--L-------------------------|--0----0----0----0--5--|


  E  E  Q    Q    E  E     E  E  Q    Q    E  E     E  E  E   E  E  E   E  E   
------------------------|------------------------|----------------------------|
------------------------|------------------------|----------------------------|
------------------------|------------------------|-----9--7-------------------|
--L--5--5----5----5--3--|--L--3--3----3----3--7--|--L--------10--8--7------7--|
--L--5--5----5----5--3--|--L--3--3----3----3--7--|--L------------------10-----|
--L--5--5----5----5--3--|--L--3--3----3----3--7--|--L-------------------------|


  Q    Q    Q    E  E     E  E  Q    Q    E  E     E  E  Q    Q    E  E   
-----------------------|------------------------|------------------------|
-----------------------|------------------------|------------------------|
-----------------------|------------------------|------------------------|
--0----0----0----0--5--|--L--5--5----5----5--3--|--L--3--3----3----3--7--|
--0----0----0----0--5--|--L--5--5----5----5--3--|--L--3--3----3----3--7--|
--0----0----0----0--5--|--L--5--5----5----5--3--|--L--3--3----3----3--7--|


  E  E  E   E  E  E   E  E     W                   W                 
----------------------------|-------------------|-------------------|
----------------------------|-------------------|-------------------|
-----9--7-------------------|-------------------|-------------------|
--L--------10--8--7------7--|--0----------------|--5----------------|
--L------------------10-----|--0----------------|--5----------------|
--L-------------------------|--0----------------|--5----------------|


  W                   W                   W                   W                 
-------------------|-------------------|-------------------|-------------------|
-------------------|-------------------|-------------------|-------------------|
-------------------|-------------------|-------------------|-------------------|
--3----------------|--7----------------|--0----------------|--5----------------|
--3----------------|--7----------------|--0----------------|--5----------------|
--3----------------|--7----------------|--0----------------|--5----------------|


  W                   W                   W                   W                 
-------------------|-------------------|-------------------|-------------------|
-------------------|-------------------|-------------------|-------------------|
-------------------|-------------------|-------------------|-------------------|
--3----------------|--7----------------|--0----------------|--5----------------|
--3----------------|--7----------------|--0----------------|--5----------------|
--3----------------|--7----------------|--0----------------|--5----------------|


  W                   W                   W                   W                 
-------------------|-------------------|-------------------|-------------------|
-------------------|-------------------|-------------------|-------------------|
-------------------|-------------------|-------------------|-------------------|
--3----------------|--7----------------|--0----------------|--5----------------|
--3----------------|--7----------------|--0----------------|--5----------------|
--3----------------|--7----------------|--0----------------|--5----------------|


  W                   W                   W                   W                 
-------------------|-------------------|-------------------|-------------------|
-------------------|-------------------|-------------------|-------------------|
-------------------|-------------------|-------------------|-------------------|
--3----------------|--7----------------|-------------------|-------------------|
--3----------------|--7----------------|-------------------|-------------------|
--3----------------|--7----------------|-------------------|-------------------|


                                          PM            PM    
  W                   W                   Q    H        Q     
-------------------|-------------------|---------------------|
-------------------|-------------------|---------------------|
-------------------|-------------------|---------------------|
-------------------|--8----------------|--0-------------0----|
-------------------|--8----------------|--0-------------0----|
-------------------|--8----------------|--0-------------0----|


  PM            PM      PM                                      
  Q    H        Q       Q    H.              H.           Q     
---------------------|--------------------|--------------------|
---------------------|--------------------|--------------------|
---------------------|--------------------|--------------------|
--0-------------0----|--0-----------------|---------------8----|
--0-------------0----|--0-----------------|---------------8----|
--0-------------0----|--0-----------------|---------------8----|


  PM            PM      PM            PM      PM                 
  Q    H        Q       Q    H        Q       Q    H.            
---------------------|---------------------|--------------------|
---------------------|---------------------|--------------------|
---------------------|---------------------|--------------------|
--0-------------0----|--0-------------0----|--0-----------------|
--0-------------0----|--0-------------0----|--0-----------------|
--0-------------0----|--0-------------0----|--0-----------------|


              PM PM      
  H        E  E  E  E    
-----------------------||
-----------------------||
-----------------------||
--------------0--0-----||
--------------0--0-----||
--------------0--0-----||



Right Guitar



     W                   W                   W                 
D||-------------------|-------------------|-------------------|
A||-------------------|-------------------|-------------------|
F||-------------------|-------------------|-------------------|
C||-------------------|-------------------|--0----------------|
G||-------------------|-------------------|--0----------------|
C||-------------------|-------------------|--0----------------|


  W                   W                   W                   W                 
-------------------|-------------------|-------------------|-------------------|
-------------------|-------------------|-------------------|-------------------|
-------------------|-------------------|-------------------|-------------------|
--L----------------|--L----------------|--L----------------|--0----------------|
--L----------------|--L----------------|--L----------------|--0----------------|
--L----------------|--L----------------|--L----------------|--0----------------|


  W                   W                   H.            Q      
-------------------|-------------------|----------------------|
-------------------|-------------------|----------------------|
-------------------|-------------------|----------------------|
--L----------------|--L----------------|--L------------12\----|
--L----------------|--L----------------|--L------------12\----|
--L----------------|--L----------------|--L------------12\----|


  PM            PM      PM            PM      PM                 
  Q    H        Q       Q    H        Q       Q    H.            
---------------------|---------------------|--------------------|
---------------------|---------------------|--------------------|
---------------------|---------------------|--------------------|
--0-------------0----|--0-------------0----|--0-----------------|
--0-------------0----|--0-------------0----|--0-----------------|
--0-------------0----|--0-------------0----|--0-----------------|


                       PM            PM      PM            PM    
  H.           Q       Q    H        Q       Q    H        Q     
--------------------|---------------------|---------------------|
--------------------|---------------------|---------------------|
--------------------|---------------------|---------------------|
---------------8----|--0-------------0----|--0-------------0----|
---------------8----|--0-------------0----|--0-------------0----|
---------------8----|--0-------------0----|--0-------------0----|


  PM                                        PM PM          PM     
  Q    H.              H.           Q       E  E  H        E  E   
--------------------|--------------------|-----------------------|
--------------------|--------------------|-----------------------|
--------------------|--------------------|-----------------------|
--0-----------------|---------------8----|--0--0-----------0-----|
--0-----------------|---------------8----|--0--0-----------0-----|
--0-----------------|---------------8----|--0--0-----------0-----|


  PM PM          PM       PM PM          PM       PM PM      PM PM       
  E  E  H        E  E     E  E  H        E  E     E  E  Q    E  E  Q     
-----------------------|-----------------------|------------------------|
-----------------------|-----------------------|------------------------|
-----------------------|-----------------------|------------------------|
--0--0-----------0-----|--0--0-----------0-----|--0--0-------5--5-------|
--0--0-----------0-----|--0--0-----------0-----|--0--0-------5--5-------|
--0--0-----------0-----|--0--0-----------0-----|--0--0-------5--5-------|


  PM PM          PM       PM PM          PM       PM PM          PM     
  E  E  H        E  E     E  E  H        E  E     E  E  H        E  E   
-----------------------|-----------------------|-----------------------|
-----------------------|-----------------------|-----------------------|
-----------------------|-----------------------|-----------------------|
--0--0-----------0-----|--0--0-----------0-----|--0--0-----------0-----|
--0--0-----------0-----|--0--0-----------0-----|--0--0-----------0-----|
--0--0-----------0-----|--0--0-----------0-----|--0--0-----------0-----|


  PM    PM    PM                                                     
  E  E  E  E  E  E    Q        W                   W                 
----------------------------|-------------------|-------------------|
----------------------------|-------------------|-------------------|
----------------------------|-------------------|-------------------|
--0--x--0--x--0--x--<>5b----|--0----------------|--L----------------|
--0--x--0--x--0--x----------|--0----------------|--L----------------|
--0--x--0--x--0--x----------|--0----------------|--L----------------|


  W                   H        H           W                 
-------------------|--------------------|-------------------|
-------------------|--------------------|-------------------|
-------------------|--------------------|-------------------|
--L----------------|--0--------5--------|--0----------------|
--L----------------|--0--------5--------|--0----------------|
--L----------------|--0--------5--------|--0----------------|


                                          PM PM PM PM PM PM         
  W                   W                   E  E  E  E  E  E   Q      
-------------------|-------------------|---------------------------|
-------------------|-------------------|---------------------------|
-------------------|-------------------|---------------------------|
--L----------------|--L----------------|--0--0--0--0--0--0--12\----|
--L----------------|--L----------------|--0--0--0--0--0--0--12\----|
--L----------------|--L----------------|--0--0--0--0--0--0--12\----|


  H.           Q       W                   H.           Q     
--------------------|-------------------|--------------------|
--------------------|-------------------|--------------------|
--------------------|-------------------|--------------------|
--0------------5----|--L----------------|--3------------7----|
--0------------5----|--L----------------|--3------------7----|
--0------------5----|--L----------------|--3------------7----|


  H        H           H.           Q       W                 
--------------------|--------------------|-------------------|
--------------------|--------------------|-------------------|
--------------------|--------------------|-------------------|
--L--------5--------|--0------------5----|--L----------------|
--L--------5--------|--0------------5----|--L----------------|
--L--------5--------|--0------------5----|--L----------------|


  H.           Q       H         H           Q    Q    Q    E  E   
--------------------|---------------------|-----------------------|
--------------------|---------------------|-----------------------|
--------------------|---------------------|-----------------------|
--3------------7----|--L--------10--------|--0----0----0----0--5--|
--3------------7----|--L--------10--------|--0----0----0----0--5--|
--3------------7----|--L--------10--------|--0----0----0----0--5--|


  E  E  Q    Q    E  E     E  E  Q    Q    E  E     E   E  E  E   E  E  E  E   
------------------------|------------------------|----------------------------|
------------------------|------------------------|----------------------------|
------------------------|------------------------|----------------------------|
--L--5--5----5----5--3--|--L--3--3----3----3--7--|--L--10--8--7---------------|
--L--5--5----5----5--3--|--L--3--3----3----3--7--|--L------------10--8--7--8--|
--L--5--5----5----5--3--|--L--3--3----3----3--7--|--L-------------------------|


  Q    Q    Q    E  E     E  E  Q    Q    E  E     E  E  Q    Q    E  E   
-----------------------|------------------------|------------------------|
-----------------------|------------------------|------------------------|
-----------------------|------------------------|------------------------|
--0----0----0----0--5--|--L--5--5----5----5--3--|--L--3--3----3----3--7--|
--0----0----0----0--5--|--L--5--5----5----5--3--|--L--3--3----3----3--7--|
--0----0----0----0--5--|--L--5--5----5----5--3--|--L--3--3----3----3--7--|


  E   E  E  E   E  E  E  E     Q    Q    Q    E  E     E  E  Q    Q  
Добавлено: 14.06.2012
Другие материалы по этой песне:

Страница создана 15.03.2012
http://primanota.ru/drop-dead/aftershock-chords.htm
Привет, Гость.
Предлагаем пройти революционный курс по гитаре.
Подарок от PrimaNota.Ru, забирай!