PrimaNota.ru - самый крупный в мире бесплатный архив песенных текстов, аккордов, табулатур и нот


Drop Dead Gorgeous - Two Birds One Stone - текст песни, таба, бас-таба, видео

Регистрация Запомнить меня
Войти через:  Facebook Google Twitter Vk Yandex Mail.ru

Drop Dead Gorgeous - Two Birds One Stone - текст песни, таба, бас-таба, видео

Печатать
Просмотров: 254
Уроки эстрадного вокала в Санкт-Петербурге
Авторы музыки: Drop Dead, Gorgeous

Two Birds, One Stone
Drop Dead, Gorgeous
The Hot N' The Heavy
Drop C- CGCFAD


-Intro-
Kyle
D|--------------------------------------------------------------|
A|-11-11---11-11-11---11-11-11---11-11-11---15-15-15---15-15-15-|
F|--x--x----x--x--x----x--x--x----x--x--x----x--x--x----x--x--x-|
C|--8--8----8--8--8----8--8--8----8--8--8---12-12-12---12-12-12-|
G|-10-10---10-10-10---10-10-10---10-10-10---13-13-13---13-13-13-|
C|--------------------------------------------------------------|

D|-----------------------------------------------------------------|
A|-15-15-15---15-15-15---10-10-10---10-10-10---10-10-10---10-10-10-|
F|--x--x--x----x--x--x----x--x--x----x--x--x----x--x--x----x--x--x-|
C|-12-12-12---12-12-12----7--7--7----7--7--7----7--7--7----7--7--7-|
G|-13-13-13---13-13-13----8--8--8----8--8--8----8--8--8----8--8--8-|
C|-----------------------------------------------------------------|

D|-------------------------------------------|
A|-11-11-11---11-11-11---11-11-11---11-11-11-|
F|--x--x--x----x--x--x----x--x--x----x--x--x-|
C|--8--8--8----8--8--8----8--8--8----8--8--8-|
G|-10-10-10---10-10-10---10-10-10---10-10-10-|
C|-------------------------------------------|


-Verse-
Kyle
D|------------------------------------------------------------------------------------|
A|-11-11-11---11-11-11---11-11-11---11-11-11---15-15-15---15-15-15--15-15-15-15-15-15-|
F|--x--x--x----x--x--x----x--x--x----x--x--x----x--x--x----x--x--x---x--x--x--x--x--x-|
C|--8--8--8----8--8--8----8--8--8----8--8--8---12-12-12---12-12-12--12-12-12-12-12-12-|
G|-10-10-10---10-10-10---10-10-10---10-10-10---13-13-13---13-13-13--13-13-13-13-13-13-|
C|------------------------------------------------------------------------------------|
Jacob
D|-------------------------------------------------------------------------|
A|-------------------------------------------------------------------------|
F|-------------------------------------------------------------------------|
C|-------------------------------------------------------------------------|
G|-10-10-10-10-10-10-10-10-10-10-10-10-13-13-13-13-13-13-13-13-13-13-13-13-|
C|-------------------------------------------------------------------------|
   pm  -  -  -  -  -  -  -  -  -  -  -  -  -  -  -  -  -  -  -  -  -  -  -
"Love is what we got...

Kyle
D|---------------------------------------------------------------------------------------|
A|-10-10-10---10-10-10---10-10-10---10-10-10---10-10-10---10-10-10---10-10-10---10-10-10-|
F|--x--x--x----x--x--x----x--x--x----x--x--x----x--x--x----x--x--x----x--x--x----x--x--x-|
C|--7--7--7----7--7--7----7--7--7----7--7--7----7--7--7----7--7--7----7--7--7----7--7--7-|
G|--8--8--8----8--8--8----8--8--8----8--8--8----8--8--8----8--8--8----8--8--8----8--8--8-|
C|---------------------------------------------------------------------------------------|
Jacob
D|----------------------------------------------------------------------|
A|----------------------------------------------------------------------|
F|----------------------------------------------------------------------|
C|----------------------------------------------------------------------|
G|--8--8--8--8--8--8--8--8--8--8--8--8--8--8--8--8--8--8--8--8--8--8--8-|
C|----------------------------------------------------------------------|
    -  -  -  -  -  -  -  -  -  -  -  -  -  -  -  -  -  -  -  -  -  -  -
...A terrible mistake, this bedroom has caught on...

Kyle
D|------------------------------------------------------------------------------------|
A|-11-11-11---11-11-11---11-11-11---11-11-11---15-15-15---15-15-15--15-15-15-15-15-15-|
F|--x--x--x----x--x--x----x--x--x----x--x--x----x--x--x----x--x--x---x--x--x--x--x--x-|
C|--8--8--8----8--8--8----8--8--8----8--8--8---12-12-12---12-12-12--12-12-12-12-12-12-|
G|-10-10-10---10-10-10---10-10-10---10-10-10---13-13-13---13-13-13--13-13-13-13-13-13-|
C|------------------------------------------------------------------------------------|
Jacob
D|-------------------------------------------------------------------------|
A|-------------------------------------------------------------------------|
F|-------------------------------------------------------------------------|
C|-------------------------------------------------------------------------|
G|-10-10-10-10-10-10-10-10-10-10-10-10-13-13-13-13-13-13-13-13-13-13-13-13-|
C|-------------------------------------------------------------------------|
    -  -  -  -  -  -  -  -  -  -  -  -  -  -  -  -  -  -  -  -  -  -  -  -
...Fire, and killed Two Birds with One Stone...

Kyle
D|----------------------------------------------------------------------------|
A|-10-10-10---10-10-10---10-10-10---10-10-10---10-10-10---10-10-10---10-10-10-|
F|--x--x--x----x--x--x----x--x--x----x--x--x----x--x--x----x--x--x----x--x--x-|
C|--7--7--7----7--7--7----7--7--7----7--7--7----7--7--7----7--7--7----7--7--7-|
G|--8--8--8----8--8--8----8--8--8----8--8--8----8--8--8----8--8--8----8--8--8-|
C|----------------------------------------------------------------------------|
Jacob
D|----------------------------------------------------------------------------|
A|----------------------------------------------------------------------------|
F|----------------------------------------------------------------------------|
C|----------------------------------------------------------------------------|
G|--8--8--8--8--8--8--8--8--8--8--8--8--8--8--8--8--8--8--8-8-8-8-8-x\\\\\\\\-|
C|------------------------------------------------------------------x\\\\\\\\-|
    -  -  -  -  -  -  -  -  -  -  -  -  -  -  -  -  -  -  -
...A terrible love song, you sang it so sweeeet"


-Chorus-
Kyle
D|-------------------------------------------------------------------------|
A|-------------------------------------------------------------------------|
F|-12-12-12-12-12-12-12-12-12-12-12-12-15-15-15-15-15-15-15-15-15-15-15-15-|
C|--x--x--x--x--x--x--x--x--x--x--x--x--x--x--x--x--x--x--x--x--x--x--x--x-|
G|-10-10-10-10-10-10-10-10-10-10-10-10-13-13-13-13-13-13-13-13-13-13-13-13-|
C|-------------------------------------------------------------------------|
Jacob
D|-------------------------------------------------------------------------|
A|-------------------------------------------------------------------------|
F|-------------------------------------------------------------------------|
C|--5--5--5--5--5--5--5--5--5--5--5--5--8--8--8--8--8--8--8--8--8--8--8--8-|
G|--5--5--5--5--5--5--5--5--5--5--5--5--8--8--8--8--8--8--8--8--8--8--8--8-|
C|--5--5--5--5--5--5--5--5--5--5--5--5--8--8--8--8--8--8--8--8--8--8--8--8-|
"And if I ever see you again, and this gun is loaded...

Kyle
D|-----------------------------------------------------------------------|
A|-----------------------------------------------------------------------|
F|-10-10-10-10-10-10-10-10-10-10-10-10-10-10-10-10-10-10-10-10-----------|
C|--x--x--x--x--x--x--x--x--x--x--x--x--x--x--x--x--x--x--x--x-----------|
G|--8--8--8--8--8--8--8--8--8--8--8--8--8--8--8--8--8--8--8--8-x\\\\\\\\-|
C|-------------------------------------------------------------x\\\\\\\\-|
Jacob
D|-----------------------------------------------------------------------|
A|-----------------------------------------------------------------------|
F|-----------------------------------------------------------------------|
C|--3--3--3--3--3--3--3--3--3--3--3--3--3--3--3--3--3--3--3--3-----------|
G|--3--3--3--3--3--3--3--3--3--3--3--3--3--3--3--3--3--3--3--3-x\\\\\\\\-|
C|--3--3--3--3--3--3--3--3--3--3--3--3--3--3--3--3--3--3--3--3-x\\\\\\\\-|
...You'll sleep in hell, you'll sleep in it...

Kyle
D|-------------------------------------------------------------------------|
A|-------------------------------------------------------------------------|
F|-12-12-12-12-12-12-12-12-12-12-12-12-15-15-15-15-15-15-15-15-15-15-15-15-|
C|--x--x--x--x--x--x--x--x--x--x--x--x--x--x--x--x--x--x--x--x--x--x--x--x-|
G|-10-10-10-10-10-10-10-10-10-10-10-10-13-13-13-13-13-13-13-13-13-13-13-13-|
C|-------------------------------------------------------------------------|
Jacob
D|-------------------------------------------------------------------------|
A|-------------------------------------------------------------------------|
F|-------------------------------------------------------------------------|
C|--5--5--5--5--5--5--5--5--5--5--5--5--8--8--8--8--8--8--8--8--8--8--8--8-|
G|--5--5--5--5--5--5--5--5--5--5--5--5--8--8--8--8--8--8--8--8--8--8--8--8-|
C|--5--5--5--5--5--5--5--5--5--5--5--5--8--8--8--8--8--8--8--8--8--8--8--8-|
...And if I ever see you again, and this gun is loaded...

Kyle
D|----------------------------------------------------------------------|
A|----------------------------------------------------------------------|
F|-10-10-10-10-10-10-10-10-10-10-10-10-10-10-10-10-10-10-10-10-10-10-10-|
C|--x--x--x--x--x--x--x--x--x--x--x--x--x--x--x--x--x--x--x--x--x--x--x-|
G|--8--8--8--8--8--8--8--8--8--8--8--8--8--8--8--8--8--8--8--8--8--8--8-|
C|----------------------------------------------------------------------|
Jacob
D|----------------------------------------------------------------------|
A|----------------------------------------------------------------------|
F|----------------------------------------------------------------------|
C|--3--3--3--3--3--3--3--3--3--3--3--3--3--3--3--3--3--3--3--3--5-5-5\\-|
G|--3--3--3--3--3--3--3--3--3--3--3--3--3--3--3--3--3--3--3--3--5-5-5\\-|
C|--3--3--3--3--3--3--3--3--3--3--3--3--3--3--3--3--3--3--3--3--5-5-5\\-|
...You'll sleep in hell, you'll sleep in hell"


Kyle
D|-----------------------------------------------------------------|
A|-11-11-11---11-11-11---11-11-11---11-11-11---11-11-11---11-11-11-|
F|--x--x--x----x--x--x----x--x--x----x--x--x----x--x--x----x--x--x-|
C|--8--8--8----8--8--8----8--8--8----8--8--8----8--8--8----8--8--8-|
G|-10-10-10---10-10-10---10-10-10---10-10-10---10-10-10---10-10-10-|
C|-----------------------------------------------------------------|


-Verse-
Kyle w/ effect
D||--------------------------------------------------------|
A||o-11-11-11-11-11-11-11-11-11-11-11-11-15-15-15-15-15-15-|
F||--------------------------------------------------------|
C||--------------------------------------------------------|
G||o-------------------------------------------------------|
C||--------------------------------------------------------|
Jacob
D||------------------------------------------------------|
A||o-----------------------------------------------------|
F||------------------------------------------------------|
C||--5-5-5------5-5------5-5-5-8-8-8------8-8------8-8-8-|
G||o-5-5-5------5-5------5-5-5-8-8-8------8-8------8-8-8-|
C||--5-5-5------5-5------5-5-5-8-8-8------8-8------8-8-8-|
-"Love is what we lost...
-And killed Two Birds with One Stone...

Kyle
D|--------------------------------------------------------||
A|-15-15-15-15-15-15-10-10-10-10-10-10-10-10-10-10-10-10-o||
F|--------------------------------------------------------||
C|--------------------------------------------------------||
G|-------------------------------------------------------o||
C|--------------------------------------------------------||
Jacob
D|------------------------------------------------------||
A|-----------------------------------------------------o||
F|------------------------------------------------------||
C|-3-3-3------3-3------3-3----3-3----3-3----3-3----3-3--||
G|-3-3-3------3-3------3-3----3-3----3-3----3-3----3-3-o||
C|-3-3-3------3-3------3-3----3-3----3-3----3-3----3-3--||
...We had a connection, this feeling has gone too far...
...A terrible love song, you sang it so sweet"


-Chorus-
Kyle
D|-------------------------------------------------------------------------|
A|-------------------------------------------------------------------------|
F|-12-12-12-12-12-12-12-12-12-12-12-12-15-15-15-15-15-15-15-15-15-15-15-15-|
C|--x--x--x--x--x--x--x--x--x--x--x--x--x--x--x--x--x--x--x--x--x--x--x--x-|
G|-10-10-10-10-10-10-10-10-10-10-10-10-13-13-13-13-13-13-13-13-13-13-13-13-|
C|-------------------------------------------------------------------------|
Jacob
D|-------------------------------------------------------------------------|
A|-------------------------------------------------------------------------|
F|-------------------------------------------------------------------------|
C|--5--5--5--5--5--5--5--5--5--5--5--5--8--8--8--8--8--8--8--8--8--8--8--8-|
G|--5--5--5--5--5--5--5--5--5--5--5--5--8--8--8--8--8--8--8--8--8--8--8--8-|
C|--5--5--5--5--5--5--5--5--5--5--5--5--8--8--8--8--8--8--8--8--8--8--8--8-|
"And if I ever see you again, and this gun is loaded...

Kyle
D|-----------------------------------------------------------------------|
A|-----------------------------------------------------------------------|
F|-10-10-10-10-10-10-10-10-10-10-10-10-10-10-10-10-10-10-10-10-----------|
C|--x--x--x--x--x--x--x--x--x--x--x--x--x--x--x--x--x--x--x--x-----------|
G|--8--8--8--8--8--8--8--8--8--8--8--8--8--8--8--8--8--8--8--8-x\\\\\\\\-|
C|-------------------------------------------------------------x\\\\\\\\-|
Jacob
D|-----------------------------------------------------------------------|
A|-----------------------------------------------------------------------|
F|-----------------------------------------------------------------------|
C|--3--3--3--3--3--3--3--3--3--3--3--3--3--3--3--3--3--3--3--3-----------|
G|--3--3--3--3--3--3--3--3--3--3--3--3--3--3--3--3--3--3--3--3-x\\\\\\\\-|
C|--3--3--3--3--3--3--3--3--3--3--3--3--3--3--3--3--3--3--3--3-x\\\\\\\\-|
...You'll sleep in hell, you'll sleep in it...

Kyle
D|-------------------------------------------------------------------------|
A|-------------------------------------------------------------------------|
F|-12-12-12-12-12-12-12-12-12-12-12-12-15-15-15-15-15-15-15-15-15-15-15-15-|
C|--x--x--x--x--x--x--x--x--x--x--x--x--x--x--x--x--x--x--x--x--x--x--x--x-|
G|-10-10-10-10-10-10-10-10-10-10-10-10-13-13-13-13-13-13-13-13-13-13-13-13-|
C|-------------------------------------------------------------------------|
Jacob
D|-------------------------------------------------------------------------|
A|-------------------------------------------------------------------------|
F|-------------------------------------------------------------------------|
C|--5--5--5--5--5--5--5--5--5--5--5--5--8--8--8--8--8--8--8--8--8--8--8--8-|
G|--5--5--5--5--5--5--5--5--5--5--5--5--8--8--8--8--8--8--8--8--8--8--8--8-|
C|--5--5--5--5--5--5--5--5--5--5--5--5--8--8--8--8--8--8--8--8--8--8--8--8-|
...And if I ever see you again, and this gun is loaded...

Kyle
D|-------------------------------------------------------------|
A|-------------------------------------------------------------|
F|-10-10-10-10-10-10-10-10-10-10-10-10-10-10-10-10-10-10-10-10-|
C|--x--x--x--x--x--x--x--x--x--x--x--x--x--x--x--x--x--x--x--x-|
G|--8--8--8--8--8--8--8--8--8--8--8--8--8--8--8--8--8--8--8--8-|
C|-------------------------------------------------------------|
Jacob
D|-------------------------------------------------------------|
A|-------------------------------------------------------------|
F|-------------------------------------------------------------|
C|--3--3--3--3--3--3--3--3--3--3--3--3--3--3--3--3--3--3--3--3-|
G|--3--3--3--3--3--3--3--3--3--3--3--3--3--3--3--3--3--3--3--3-|
C|--3--3--3--3--3--3--3--3--3--3--3--3--3--3--3--3--3--3--3--3-|
...You'll sleep in hell, you'll SLEEP IN HELL!!!"


-Breakdown-
Kyle & Jacob
D|------------------------------------------------------------|
A|------------------------------------------------------------|
F|----------------7pb~---9pb~---------------------------------|
C|-0-0--0--0------x------x-------0-0--0--0----x-x-x-x-x-x-x-x-|
G|-0-0--0--0----0-5pb~-0-7pb~----0-0--0--0----x-x-x-x-x-x-x-x-|
C|-0-0--0--0----0------0---------0-0--0--0----x-x-x-x-x-x-x-x-|
                -      -
D|-----------------------------------------------------|
A|-----------------------------------------------------|
F|----------------7pb~---9pb~--------------------------|
C|-0-0--0--0------x------x-------0-0--0--0-------------|
G|-0-0--0--0----0-5pb~-0-7pb~----0-0--0--0--x\\\\\\\\\-|
C|-0-0--0--0----0------0---------0-0--0--0--x\\\\\\\\\-|
                -      -

*[I'm sorry, don't know what Kyle is tapping]*

Jacob
D|-----------------------------------------------------------------|
A|-----------------------------------------------------------------|
F|-----------------------------------------------------------------|
C|-5-5-5-5-5-5-5-5-5-5-5-5-5-5-5-5-3-3-3-3-3-3-3-3-3-3-3-3-3-3-3-3-|
G|-5-5-5-5-5-5-5-5-5-5-5-5-5-5-5-5-3-3-3-3-3-3-3-3-3-3-3-3-3-3-3-3-|
C|-5-5-5-5-5-5-5-5-5-5-5-5-5-5-5-5-3-3-3-3-3-3-3-3-3-3-3-3-3-3-3-3-|
"You told be you'd keep this between us but...

D|-----------------------------------------------------------------|
A|-----------------------------------------------------------------|
F|-----------------------------------------------------------------|
C|-0-0-0-0-0-0-0-0-0-0-0-0-0-0-0-0-0-0-0-0-0-0-0-0-0-0-0-0-0-0-0-0-|
G|-0-0-0-0-0-0-0-0-0-0-0-0-0-0-0-0-0-0-0-0-0-0-0-0-0-0-0-0-0-0-0-0-|
C|-0-0-0-0-0-0-0-0-0-0-0-0-0-0-0-0-0-0-0-0-0-0-0-0-0-0-0-0-0-0-0-0-|
...If you're so sorry, I hope you're happy...

D|-----------------------------------------------------------------|
A|-----------------------------------------------------------------|
F|-----------------------------------------------------------------|
C|-5-5-5-5-5-5-5-5-5-5-5-5-5-5-5-5-3-3-3-3-3-3-3-3-3-3-3-3-3-3-3-3-|
G|-5-5-5-5-5-5-5-5-5-5-5-5-5-5-5-5-3-3-3-3-3-3-3-3-3-3-3-3-3-3-3-3-|
C|-5-5-5-5-5-5-5-5-5-5-5-5-5-5-5-5-3-3-3-3-3-3-3-3-3-3-3-3-3-3-3-3-|
...You sluuuuuuuuuuuuuung, your toooooooooooongue...

D|-----------------------------------------------------------------|
A|-----------------------------------------------------------------|
F|-----------------------------------------------------------------|
C|-0-0-0-0-0-0-0-0-0-0-0-0-0-0-0-0-0-0-0-0-0-0-0-0-0-0-0-0-0-0-0-0-|
G|-0-0-0-0-0-0-0-0-0-0-0-0-0-0-0-0-0-0-0-0-0-0-0-0-0-0-0-0-0-0-0-0-|
C|-0-0-0-0-0-0-0-0-0-0-0-0-0-0-0-0-0-0-0-0-0-0-0-0-0-0-0-0-0-0-0-0-|
...At meeeeeeee, you're wrooooooooooooong"


Kyle
D|-------------------------------------|
A|-------------------------------------|
F|-15-15-15-15-15-15-15-15-15-15-15-15-|
C|--x--x--x--x--x--x--x--x--x--x--x--x-|
G|-13-13-13-13-13-13-13-13-13-13-13-13-|
C|-------------------------------------|
"If I ever see you again"


Kyle
D|-------------------------------------|
A|-------------------------------------|
F|-15-15-15-15-15-15-15-15-15-15-15-15-|
C|--x--x--x--x--x--x--x--x--x--x--x--x-|
G|-13-13-13-13-13-13-13-13-13-13-13-13-|
C|-------------------------------------|
Jacob
D|-------------------------------------|
A|-------------------------------------|
F|-------------------------------------|
C|--8--8--8--8--8--8--8--8--8--8--8--8-|
G|--8--8--8--8--8--8--8--8--8--8--8--8-|
C|--8--8--8--8--8--8--8--8--8--8--8--8-|
"This gun is loaded...

Kyle
D|-------------------------------------------------------------|
A|-------------------------------------------------------------|
F|-10-10-10-10-10-10-10-10-10-10-10-10-10-10-10-10-10-10-10-10-|
C|--x--x--x--x--x--x--x--x--x--x--x--x--x--x--x--x--x--x--x--x-|
G|--8--8--8--8--8--8--8--8--8--8--8--8--8--8--8--8--8--8--8--8-|
C|-------------------------------------------------------------|
Jacob
D|-------------------------------------------------------------|
A|-------------------------------------------------------------|
F|-------------------------------------------------------------|
C|--3--3--3--3--3--3--3--3--3--3--3--3--3--3--3--3--3--3--3--3-|
G|--3--3--3--3--3--3--3--3--3--3--3--3--3--3--3--3--3--3--3--3-|
C|--3--3--3--3--3--3--3--3--3--3--3--3--3--3--3--3--3--3--3--3-|
...You'll sleep in hell, you'll sleep in it...

Kyle
D|-------------------------------------------------------------------------|
A|-------------------------------------------------------------------------|
F|-12-12-12-12-12-12-12-12-12-12-12-12-15-15-15-15-15-15-15-15-15-15-15-15-|
C|--x--x--x--x--x--x--x--x--x--x--x--x--x--x--x--x--x--x--x--x--x--x--x--x-|
G|-10-10-10-10-10-10-10-10-10-10-10-10-13-13-13-13-13-13-13-13-13-13-13-13-|
C|-------------------------------------------------------------------------|
Jacob
D|-------------------------------------------------------------------------|
A|-------------------------------------------------------------------------|
F|-------------------------------------------------------------------------|
C|--5--5--5--5--5--5--5--5--5--5--5--5--8--8--8--8--8--8--8--8--8--8--8--8-|
G|--5--5--5--5--5--5--5--5--5--5--5--5--8--8--8--8--8--8--8--8--8--8--8--8-|
C|--5--5--5--5--5--5--5--5--5--5--5--5--8--8--8--8--8--8--8--8--8--8--8--8-|
...And if I ever see you again, and this gun is loaded...

Kyle
D|-------------------------------------------------------------|
A|-------------------------------------------------------------|
F|-10-10-10-10-10-10-10-10-10-10-10-10-10-10-10-10-10-10-10-10-|
C|--x--x--x--x--x--x--x--x--x--x--x--x--x--x--x--x--x--x--x--x-|
G|--8--8--8--8--8--8--8--8--8--8--8--8--8--8--8--8--8--8--8--8-|
C|-------------------------------------------------------------|
Jacob
D|-------------------------------------------------------------|
A|-------------------------------------------------------------|
F|-------------------------------------------------------------|
C|--3--3--3--3--3--3--3--3--3--3--3--3--3--3--3--3--3--3--3--3-|
G|--3--3--3--3--3--3--3--3--3--3--3--3--3--3--3--3--3--3--3--3-|
C|--3--3--3--3--3--3--3--3--3--3--3--3--3--3--3--3--3--3--3--3-|
...You'll sleep in hell, you'll sleep in heeeeeeeeell...

Kyle
D|-------------------------------------------------------------------------|
A|-------------------------------------------------------------------------|
F|-12-12-12-12-12-12-12-12-12-12-12-12-15-10-10-10-10-10-10-10-10-10-10-10-|
C|--x--x--x--x--x--x--x--x--x--x--x--x--x--x--x--x--x--x--x--x--x--x--x--x-|
G|-10-10-10-10-10-10-10-10-10-10-10-10--8--8--8--8--8--8--8--8--8--8--8--8-|
C|-------------------------------------------------------------------------|
Jacob
D|-------------------------------------------------------------------------|
A|-------------------------------------------------------------------------|
F|-------------------------------------------------------------------------|
C|--5--5--5--5--5--5--5--5--5--5--5--5--3--3--3--3--3--3--3--3--3--3--3--3-|
G|--5--5--5--5--5--5--5--5--5--5--5--5--3--3--3--3--3--3--3--3--3--3--3--3-|
C|--5--5--5--5--5--5--5--5--5--5--5--5--3--3--3--3--3--3--3--3--3--3--3--3-|
...(And if I ever see you agaaaaaaaaaain) you sang it so sweeeeeet...

Kyle
D|------------------------------------------------------------|
A|------------------------------------------------------------|
F|-7--7--7--7--7--7--7--7--7--7--7--7--7--7--7--7--7--7--7--7-|
C|-x--x--x--x--x--x--x--x--x--x--x--x--x--x--x--x--x--x--x--x-|
G|-5--5--5--5--5--5--5--5--5--5--5--5--5--5--5--5--5--5--5--5-|
C|------------------------------------------------------------|
Jacob
D|------------------------------------------------------------|
A|------------------------------------------------------------|
F|------------------------------------------------------------|
C|-0--0--0--0--0--0--0--0--0--0--0--0--0--0--0--0--0--0--0--0-|
G|-0--0--0--0--0--0--0--0--0--0--0--0--0--0--0--0--0--0--0--0-|
C|-0--0--0--0--0--0--0--0--0--0--0--0--0--0--0--0--0--0--0--0-|
...And if I ever see you agaaaaaaaaaain (you sang it)

Kyle
D|------------------------------------------------------|
A|-12~~~~~~~~~~~~~~~~~~~~~~~~~~~~~~~~~~~~~~~~~~~~~~~~~~-|
F|-15~~~~~~~~~~~~~~~~~~~~~~~~~~~~~~~~~~~~~~~~~~~~~~~~~~-|
C|------------------------------------------------------|
G|------------------------------------------------------|
C|------------------------------------------------------|
Jacob
D|------------------------------------------------------|
A|------------------------------------------------------|
F|------------------------------------------------------|
C|-5~~~~~~~~~~~~~~~~~~~~~~~~~~~~~~~~~~~~~~~~~~~~~~~~~~~-|
G|-5~~~~~~~~~~~~~~~~~~~~~~~~~~~~~~~~~~~~~~~~~~~~~~~~~~~-|
C|-5~~~~~~~~~~~~~~~~~~~~~~~~~~~~~~~~~~~~~~~~~~~~~~~~~~~-|
"So sweeeeeeeeeeet"
Добавлено: 01.03.2012
Другие материалы по этой песне:

Страница создана 01.03.2012
http://primanota.ru/drop-dead-gorgeous/two-birds-one-stone-chords.htm
Привет, Гость.
Предлагаем пройти революционный курс по гитаре.
Подарок от PrimaNota.Ru, забирай!