PrimaNota.ru - самый крупный в мире бесплатный архив песенных текстов, аккордов, табулатур и нот


Drop Dead Gorgeous - Theyll Never Get Me - таба, видео

Регистрация Запомнить меня
Войти через:  Facebook Google Twitter Vk Yandex Mail.ru

Drop Dead Gorgeous - Theyll Never Get Me - таба, видео

Печатать
Просмотров: 93
                 =========================================
                    They'll Never Get Me
                              - Drop Dead, Gorgeous
                 =========================================

Off the new album, "Worse Than a Fairy Tale"

Tabbed by: Tim Yang
Email : xfailurebydesign@yahoo.com
AIM : a mess we made x


I heard the new song by them, and I was like damn that sounds pretty awesome, I would 
to learn how to play.  This song was pretty hard to
tab actually, Drop Dead Gorgeous uses a lot of effects and stuff and some riffs were 
to hear (others sounded like no guitar was playing and there was only vocalization) but I 
my best.  Suggestions/comments would be appreciated.

 * Tuning *

Drop C : C G C F A D

 * Legend *

. = palm mute
* = tremelo
^ = bend
/ = slide up
\ = slide down
p = pull off
h = hammer on
x = dead note

Throughout the tab you'll see [x _ ] with a number in the blank space.  This indicates 
many times to play the specified note or chord, NOT how many times to play the riff. 
would be located outside the bar)

"Not Again, not again, not again, not again!"

D|---------|------------------------------|
A|---------|------------------------------|
F|---------|-----------------10-----------|
C|-----12\-|-----------------8--[x8]------| [x2 not including slide]
G|-----12\-|-----------------8------------|
C|-----12\-|-5h3--000-000-0---------------|
                  ... ... .


D|-----------------------------------------------|
A|-----------------------------------------------|
F|------------------10/14-14-14-14--10-10-10-10--|
C|------------------8-/12-12-12-12--8--8--8--8---| [x2]
G|------------------8-/12-12-12-12--8--8--8--8---|
C|--5h3--000-000-0-------------------------------|
         ... ... .

"Why did God, make glass to be shattered?"

   [1st Guitar]
D|---------------------------------------------|
A|---------------------------------------------|
F|----------------10/14-14-14-14--10-10-10-10--| [x4]
C|----------------8-/12-12-12-12--8--8--8--8---|
G|-----8p05p0-----8-/12-12-12-12--8--8--8--8---|
C|--00--------00-------------------------------|
 |  ..        ..
 |
 | [2nd Guitar]
D|---------------------------------------------|
A|---------------------------------------------|
F|----------------10/14-14-14-14--10-10-10-10--| [x4]
C|----------------8-/12-12-12-12--8--8--8--8---|
G|----------------8-/12-12-12-12--8--8--8--8---|
C|--00-5p03p0-00-------------------------------|
    ..        ..


".. your eyes "

D|----------------------|
A|------------------10--|
F|------------------10--|
C|------------------10--|
G|--5^------------------|
C|--5^----xxxxx---------|


Okay, this part was confusing.  I think they use a delay pedal, but I'm not sure.  
what I got:

"Forgot my name, forgot where I came from..."

D|---------------------------------------------------------|
A|---------------------------------------------------------|
F|-15h3p0--[4x]--10h3p0--[4x]--12h3p0--[4x]--10h3p0--[4x]--|
C|---------------------------------------------------------|
G|---------------------------------------------------------|
C|---------------------------------------------------------|

D|--------------------------------------------|
A|--------------------------------------------|
F|-15h3p0--[4x]--10h3p0--[4x]--14h3p0--[8x]---|
C|--------------------------------------------|
G|--------------------------------------------|
C|--------------------------------------------| [then repeat both]


"Call me the Dark Angel .."

D|------------------------------------------------------------|
A|------------------------------------------------------------|
F|------------------------------------------------------------|
C|--8--------3--------5----------8--------10--------5---------| [x2]
G|--8--[x8]--3--[x8]--5--[x16]---8--[x8]--10--[x8]--5--[x16]--|
C|--8--------3--------5----------8--------10--------5---------|


Okay so this next part I think it's played on either they keys or a clean guitar, but I 
it out on the clean guitar.

"I'd like to have a word with you..."

D|-----------------------------------------------|
A|-----------------------------------------------|
F|--15--15---14--11--12-----15--15---14--17--12--|
C|--12--12---12--12--12-----12--12---12--12--12--| [x2]
G|-----------------------------------0-----------|
C|-----------------------------------------------|

    [1st Guitar]
D|-------------------|
A|--*----*--*--*--*--|
F|--7----5--3--2--0--|
C|-------------------| [x4]
G|-------------------|
C|-------------------|
 |
 |  [2nd Guitar]
D|-------------------|
A|-------------------|
F|-------------------|
C|-------------------| [x4]
G|--*---*---*--*--*--|
C|--12--10--8--7--5--|


*Weird Breakdown*

D|--------------------------------------------------------|
A|-----7--------7----------7---7------7---7------7---7----|
F|-----10-------10---------10--10-----10--10-----10--10---|
C|-----0--------0----------0---0------0---0------0---0----|
G|-0--------0---------------------------------------------|
C|-0--------0--------0000----------0----------0-----------|
   .        .        ....          .          .

D|----------------------|
A|--7---7------7---7----|
F|--10--10-----10--10---|
C|--0---0------0---0----| [1st Guitar Only]
G|----------------------|
C|----------------------|

D|--------------------------------------------------------|
A|-----7--------7----------7---7------7---7------7---7----|
F|-----10-------10---------10--10-----10--10-----10--10---|
C|-----0--------0----------0---0------0---0------0---0----|
G|-0--------0---------------------------------------------|
C|-0--------0--------0000----------0----------0-----------|
   .        .        ....          .          .

D|------------------------------------------------|
A|--------------7---7------------7-----7----------|
F|--[keys]------10--10--[keys]---10----10-[ring]--|
C|--------------0---0------------0-----0----------|
G|----------0-------------------------------------|
C|----------0-------------------------------------|
            .

D|--------------------------------------------------------|
A|-----7--------7----------7---7------7---7------7---7----|
F|-----10-------10---------10--10-----10--10-----10--10---|
C|-----0--------0----------0---0------0---0------0---0----|
G|-0--------0---------------------------------------------|
C|-0--------0--------0000----------0----------0-----------|
   .        .        ....          .          .

D|--------------------------|
A|--7---7---7---7---7---7---|
F|--10--10--10--10--10--10--|
C|--0---0---0---0---0---0---|
G|--------------------------|
C|--------------------------|

D|--------------------------------------------------------|
A|-----7--------7----------7---7------7---7------7---7----|
F|-----10-------10---------10--10-----10--10-----10--10---|
C|-----0--------0----------0---0------0---0------0---0----|
G|-0--------0---------------------------------------------|
C|-0--------0--------0000----------0----------0-----------|
   .        .        ....          .          .

D|-------------|
A|--7--7-------|
F|--10-10------| [x8]
C|--0--0-------|
G|--------0-0--|
C|--------0-0--|
          . .

"... Dark Angel, please don't scare ..."

D|------------------------------------------------------------|
A|------------------------------------------------------------|
F|------------------------------------------------------------|
C|--8--------3--------5----------8--------10--------5---------| [x2]
G|--8--[x8]--3--[x8]--5--[x16]---8--[x8]--10--[x8]--5--[x16]--|
C|--8--------3--------5----------8--------10--------5---------|

D|------------------------------|
A|------------------------------|
F|------------------------------|
C|--8--------7--------5---------|
G|--8--[x8]--7--[x8]--5--[x16]--|
C|--8--------7--------5---------|


"I'd like to have a word with you ..."

D|-----------------------------------------------|
A|-----------------------------------------------|
F|--15--15---14--11--12-----15--15---14--17--12--|
C|--12--12---12--12--12-----12--12---12--12--12--| [x2]
G|-----------------------------------0-----------|
C|-----------------------------------------------|

"I'd like to have my way with you ..."

    [1st Guitar]
D|-------------------|
A|--*----*--*--*--*--|
F|--7----5--3--2--0--|
C|-------------------| [x12]
G|-------------------|
C|-------------------|
 |
 |  [2nd Guitar]
D|-------------------|
A|-------------------|
F|-------------------|
C|-------------------| [x12]
G|--*---*---*--*--*--|
C|--12--10--8--7--5--|

  [1st Guitar]
D|---------------------------------------------|
A|---------------------------------------------|
F|----------------10/14-14-14-14--10-10-10-10--| [x4]
C|----------------8-/12-12-12-12--8--8--8--8---|
G|-----8p05p0-----8-/12-12-12-12--8--8--8--8---|
C|--00--------00-------------------------------|
 |  ..        ..
 |
 | [2nd Guitar]
D|---------------------------------------------|
A|---------------------------------------------|
F|----------------10/14-14-14-14--10-10-10-10--| [x4]
C|----------------8-/12-12-12-12--8--8--8--8---|
G|----------------8-/12-12-12-12--8--8--8--8---|
C|--00-5p03p0-00-------------------------------|
    ..        ..


*Play Slower*


  [1st Guitar]
D|---------------------------------------------|
A|---------------------------------------------|
F|----------------10/14-14-14-14--10-10-10-10--| [x2]
C|----------------8-/12-12-12-12--8--8--8--8---|
G|-----8p05p0-----8-/12-12-12-12--8--8--8--8---|
C|--00--------00-------------------------------|
 |  ..        ..
 |
 | [2nd Guitar]
D|---------------------------------------------|
A|---------------------------------------------|
F|----------------10/14-14-14-14--10-10-10-10--| [x2]
C|----------------8-/12-12-12-12--8--8--8--8---|
G|----------------8-/12-12-12-12--8--8--8--8---|
C|--00-5p03p0-00-------------------------------|
    ..        ..

D|-----------|
A|-----------|
F|------10---|  *End*
C|------8----|
G|--0---8----|
C|--0--------|
    .


So that's what I've pretty much tabbed, if you have any suggestions or corrections 
contact me with the info above.  I can't wait for the new CD by the way haha :]

***
Добавлено: 30.03.2012
Вам также может быть интересно:
Другие материалы по этой песне:
  • Аккорды и текст

Страница создана 30.03.2012
http://primanota.ru/drop-dead-gorgeous/theyll-never-get-me-chords.htm
Привет, Гость.
Предлагаем пройти революционный курс по гитаре.
Подарок от PrimaNota.Ru, забирай!